Ac Dc - Nick Of Time Chords & Tabs

 

Nick Of Time Chords & Tabs

Ac Dc Chords & Tabs

Version: 1 Type: Tab 0 ratings
1 star 2 stars 3 stars 4 stars 5 stars
comments

Nick Of Time Tab

Tuning: Standard

e------------------ ---------------|
B------------------ ---------------|
G------------------ ---------------|
D--2-2-2-2-2-2-2-2- --5--5--7--7---|
A------------------ --2--3--4--5---|
E------------------ ---------------|

e--------------------------------|
B--------------------------------|
G---9--7--x-7----x------x--------|
D---9--7--x-7--5-x-5--7-x-4--5---|
A---7--5--x-5--5-x-5--7-x-4--5---|
E-0------------3---3--5---2--3---|
[ Tab from: http://www.guitartabs.cc/tabs/a/ac_dc/nick_of_time_tab.html ]
e---------------------------12-12-12-12-12-12--------------------------------------------|
B---------------------------12-12-12-12-12-12---13-13-13-13-13-13------------------------|
G---------------------------------------------5-12-12-12-12-12-12--7------4---5---6---7--|
D---2----------------------2------------------5--------------------7------4---5---6---7--|
A---2----------------------2------------------3--------------------5----0-2-0-3-0-4-0-5--|
E---0----------------------0-------------------------------------------------------------|


e-----7---7---7---8--8----7--5--5------------------------------------------------------------|
B--------------------------------------------------------------------------------------------|
G--/7---7---7---7------7--------------7-7-7-7-7-7-7-7-7-7-7-7-7-7-7--------4---5---6---7-----|
D-------------------------------------7-7-7-7-7-7-7-7-7-7-7-7-7-7-7--------4---5---6---7-----|
A-------------------------------------5-5-5-5-5-5-5-5-5-5-5-5-5-5-5------0-2-0-3-0-4-0-5-0---|
E--------------------------------------------------------------------------------------------|

That's It so far!

submitted: 2/12/05
Comments