Ac Dc - Moneytalks Chords & Tabs

 

Moneytalks Chords & Tabs

Ac Dc Chords & Tabs

Version: 6 Type: Tab

Moneytalks Tab

   
INTRO
Guitar 1
E------------------|---------------|------------------|----------------|
B---3--3--3--3---1-|---1-1-1-1-1---|---3--3--3--3---1-|---1-1---1---1--|
G---4--2--4--2---0-|---4-2-0-2-0---|---4--2--4--2---0-|---4-2-0-0-2-0--|
D---0--0--0--0---0-|---------------|---0--0--0--0---0-|----------------|
A----------------3-|---------------|----------------3-|----------------|
E---3--3--3--3-----|---------------|---3--3--3--3-----|----------------|

Guitar 2
This is the lead thats been tabbed, but i dont think Angus plays it like this!
E---7--5--7--5---8-|---7-5---5-----|---7--5--7--5---8-|---7-x-----x--x-x-|
B---8--8--8--8---8-|---8-8-8-8-8---|---8--8--8--8---8-|---8-10/8--8-10-8-|
G---7--7--7--7---9-|---7----7--7---|---7--7--7--7---7-|---7-7-----7-7--7-|
D------------------|---------------|------------------|------------------|
A------------------|---------------|------------------|------------------|
E------------------|---------------|------------------|------------------|

Guitar 2.0
This is somthign picked off the net as the intro, its easier, but still dosent sound right!
E :----------------|---------------|----------------|-----------------|
B :----------------|---------------|----------------|-----------------|
G :-16-14-16-14-17-|16-14-12-14-12-|-16-14-16-14-17-|16-14-12-12-14-12|
D :-12-12-12-12-12-|12-12-12-12-12-|-12-12-12-12-12-|12-12-12-12-12-12|
A :----------------|---------------|----------------|-----------------|
E :----------------|---------------|----------------|-----------------|


Riff 1
Guitar 1
                12x               4x               4x
E :----------------| |----------------| |----------------|----------------|
B :----------------| |-3-3------------| |----------------|Then-Repeat-----|
G :----------------| |-2-2------------| |-5-5------------|From-Beginning--|
D :-5-5------------| |-0-0--0-3-4-----| |-5-5---1-2------|----------------|
A :-5-5----1-2-----| |----------------| |-3-3-3----------|----------------|
E :-3-3--3---------| |----------------| |----------------|----------------|

Guitar 2
e -----------------| |----------------| |----------------|----------------|
b -3--3------------| |--3-3-----------| |-3-3------------|----------------|
g -0--0------------| |--2-2-----------| |-0-0------------|=---------------|
D -0--0------------| |--0-0-0-3-4-----| |-0-0---1-2------|----------------|
A ---------1-2-----| |----------------| |-3-3-3----------|----------------|
E -3--3--3---------| |----------------| |----------------|----------------|

CHORUS
Guitar 1
|e ------------------|--------------|----------------|---------------|
|b --3---3--3-3--3---|--1-1-1--1--1-|-3-3--3-3---3---|-3-3--3-3-3-3--|
|g --4---2--4-2--0---|--4-2-0--2--0-|-4-2--4-2---5---|-4-2--0-0-2-0--|
|D --0---0--0-0--0---|--------------|-0-0--0-0---0---|-0-0--0-0-0-0--|
|A --------------3---|--3-3-3--3--3-|----------------|---------------|
|E --3---3--3-3------|--------------|-3-3--3-3-------|---------------|

|e ------------------|--------------|----------------|---------------|
|b --3---3--3-3--1---|--3-3-3--3--3-|-3-3--3-3---3---|--------3---3--|
|g --4---2--4-2--0---|--0-0-0--0--0-|-4-2--4-2-0-2---|--------2---2--|
|D --0---0--0-0--0---|--------------|-0-0--0-0---0---|--x\----0---0--|
|A --------------3---|--3-3-3--3--3-|------------0---|--x\----0---0--|
|E --3---3--3-3------|--------------|-3-3--3-3-------|---------------|
                ()= guitar 2 only                      x=scratch

[ Tab from: http://www.guitartabs.cc/tabs/a/ac_dc/moneytalks_tab_ver_6.html ]
                 2x                                                 3x
E :----------------|----------------|----------------|----------------|
B :-3--3--3--3--3--|Then-Play-------|Then-opening----|----------------|
G :-2--2--2--2--2--|verse-riff------|riff-6x---------|----------------|
D :-0--0--0--0--0--|----------------|----------------|-5-5------------|
A :----------------|----------------|----------------|-5-5------------|
E :----------------|----------------|----------------|-3-3-3-3-7-3----|

                               SOLO b               b                    b            b
|-------------------------------|---6(7)---6(7)--3-----3-3-3-6^7------3------6^7----3---------|
|--3--3--3----3--3----3--3--3---|---5(6)-3-5(6)--3--3--3-3-3-5^6------3--3---5^6----3-5(6)----|
|--2--2--2----2--2----2--2--2---|-------/2--------5(7)-----------------5(7)-----------5(6)----|
|--0--0--0----0--0----0--0--0---|--------0----------------------------------------------------|
|-------------------------------|-------------------------------------------------------------|
|-------------------------------|-------------------------------------------------------------|
     b r                                            b               b r
|-----------------------------------3---------------------------3------------------------------|
|--5(6)5^3-5-3--------------------3---6^3--3--------------------3-----------5-3--/-------------|
|--5(6)5^3-5-3----------------3^5--------5---3----5(7)------------5(7)5^3---5-3--/12-12-14(15--|
|---------5--------5^3-5~~~~--------------------5-------------------------5--------------------|
|----------------------------------------------------------------------------------------------|
|----------------------------------------------------------------------------------------------|
      r b r b r b r b r b   r                 b    .
|---------------------------------------------------------------------------------------------|
|---15-15-15-15-15-15-15--15-----------------------15-----------------------------------------|
|--(15)14(15)14(15)14(15)(15)^14^12-------14(15)---16--12--12------12--12-----12--12--12-\----|
|------------------------------------12^14---------------------/14--------/17-----------------|
|---------------------------------------------------------------------------------------------|
|---------------------------------------------------------------------------------------------|
          b     b      b
|---------------------------------------------------------------------------------------------|
|-----15-----15-----15-----------------------------------------------3------------3---5-3--\--|
|--12-14(15)-14(15)-14(15)--12~~~~~~~~~------------------------------3------------3---5-3--\--|
|---------------------------------------10^12^10-\-----5--5----5--5-----3--5~~~~--------------|
|--------------------------------------------------5/7------/7--------------------------------|
|---------------------------------------------------------------------------------------------|
      b       b       b          b         b       b      b      b
|---------------------------------------18(20)-18(20)-18(20)-18(20)-|
|--15-----x-15-----x-15-----x-15------x-----------------------------|
|--14(15)-x-14(15)-x-14(15)-x-14(15)--x-----------------------------|
|-------------------------------------------------------------------|
|-------------------------------------------------------------------|
|-------------------------------------------------------------------|


tabbed by kyle Ac/dc rule