Ac Dc - Moneytalks Chords & Tabs

 

Moneytalks Chords & Tabs

Ac Dc Chords & Tabs

Version: 2 Type: Tab 0 ratings
1 star 2 stars 3 stars 4 stars 5 stars
comments

Moneytalks Tab

   
intro:
e|-----------------------------------------------------------------|
b|-3-3-3-3-1--0-0-0-0-0---3-3-3-3-1--0-0-0-0-0-0-------------------|
g|-4-2-4-2-0--4-2-0-2-0---4-2-4-2-0--4-2-0-0-2-0-------------------|
d|-0-0-0-0-0--0-0-0-0-0---0-0-0-0-0--0-0-0-0-0-0-------------------|
a|-----------------------------------------------------------------|
e|-----------------------------------------------------------------|

e|--------------------------------0--------------------------------|
b|-3-3-3-3-1--0-0-0-0-0---3-3-3-3-1--------------------------------|
g|-4-2-4-2-0--4-2-0-2-0---4-2-4-2-0--------------------------------|
d|-0-0-0-0-0--0-0-0-0-0---0-0-0-0-0--------------------------------|
a|--------------------------------0--------------------------------|
e|--------------------------------0--------------------------------|

verse:
e|-----------------------------------------------------------------|
b|-----------------------------------------------------------------|
g|-----04p0--------------------------------------------------------|
d|-5-5-------------------------------------------------------------|
a|-5-5-------------------------------------------------------------|
e|-----------------------------------------------------------------|
play this 12 times until it changes to....
e|-----------------------------------------------------------------|
b|-----------------------------------------------------------------|
g|-----26p2--------------------------------------------------------|
d|-7-7-------------------------------------------------------------|
a|-7-7-------------------------------------------------------------|
e|-----------------------------------------------------------------|
play this 4 times
e|-----------------------------------------------------------------|
b|-----------------------------------------------------------------|
g|-----04p0--------------------------------------------------------|
d|-5-5-------------------------------------------------------------|
a|-5-5-------------------------------------------------------------|
e|-----------------------------------------------------------------|
then play this 4 times

chorus:
e|-----------------------------------------------------------------|
b|-3-3-3-3-1--0-0-0-0-0---3-3-3-3-1--0-0-0-0-0-0-------------------|
g|-4-2-4-2-0--4-2-0-2-0---4-2-4-2-0--4-2-0-0-2-0-------------------|
d|-0-0-0-0-0--0-0-0-0-0---0-0-0-0-0--0-0-0-0-0-0-------------------|
a|-----------------------------------------------------------------|
e|-----------------------------------------------------------------|

e|-----------------------------------------------------------------|
b|-3-3-3-3-1--0-0-0-0-0---3-3-3-3-1--0-0-0-0-0-0-------------------|
g|-4-2-4-2-0--4-2-0-2-0---4-2-4-2-0--4-2-0-0-2-0-------------------|
d|-0-0-0-0-0--0-0-0-0-0---0-0-0-0-0--0-0-0-0-0-0-------------------|
a|-----------------------------------------------------------------|
e|-----------------------------------------------------------------|

pre solo:

e|-----------------------------------------------------------------|
b|-3---------------------------------------------------------------|
g|-2---------------------------------------------------------------|
d|-0---------------------------------------------------------------|
a|-0---------------------------------------------------------------|
e|-0---------------------------------------------------------------|
hit 8 times

solo:
e|-6b-3-3-3-3-3--6b-3-3-3-3-3-----3-3------3-3--6b-6b-6b-6b-6b--3-3-3| 
b|-5b-3-3-3-3-3--5b-3-3-3-3-3--/8-3-3--/8--3-3--5b-5b-5b-5b-5b--3-3-3| 
g|-------------------------------------------------------------------|      
d|-------------------------------------------------------------------|
a|-------------------------------------------------------------------|
e|-------------------------------------------------------------------|
[ Tab from: http://www.guitartabs.cc/tabs/a/ac_dc/moneytalks_tab_ver_2.html ]
e|--------------------------------------------------------------------|
b|---15-15-15-15-15-15-15--15---------------------15------------------|
g|--(15)14(15)14(15)14(15)(15)^14^12-----14(15)---16--12-12--12-12----|
d|---------------------------------12^14------------------/14-----/17-|
a|--------------------------------------------------------------------|
e|--------------------------------------------------------------------|

e|--------------------------------------------------------------------|
b|----------------15--15--15----------------------------3-----3--5-3-/|
g|-12-12-12-/--12-14b-14b-14b--12v----------------------3-----3--5-3-/|
d|---------------------------------10h12h10/---5-5--5-5--3-5v---------|
a|------------------------------------------5/7---/7------------------|
e|--------------------------------------------------------------------|

e|---------------------------------------18b----18b-18b-18b----------|
b|--15-----x-15-----x-15-----x-15------x-----------------------------|
g|--14(15)-x-14b----x-14b----x-14b-----x-----------------------------|
d|-------------------------------------------------------------------|
a|-------------------------------------------------------------------|
e|-------------------------------------------------------------------|

e|--7-5-7-5--8-7-5-3-5-3--7-5-7-5--8-7-5-3-3-5-3---------------------|
b|-------------------------------------------------------------------|
g|-------------------------------------------------------------------|
d|-------------------------------------------------------------------|
a|-------------------------------------------------------------------|
e|-------------------------------------------------------------------|
do this twice into final chorus

chorus:
e|-----------------------------------------------------------------|
b|-3-3-3-3-1--0-0-0-0-0---3-3-3-3-1--0-0-0-0-0-0-------------------|
g|-4-2-4-2-0--4-2-0-2-0---4-2-4-2-0--4-2-0-0-2-0-------------------|
d|-0-0-0-0-0--0-0-0-0-0---0-0-0-0-0--0-0-0-0-0-0-------------------|
a|-----------------------------------------------------------------|
e|-----------------------------------------------------------------|

e|-----------------------------------------------------------------|
b|-3-3-3-3-1--0-0-0-0-0---3-3-3-3-1--0-0-0-0-0-0-------------------|
g|-4-2-4-2-0--4-2-0-2-0---4-2-4-2-0--4-2-0-0-2-0-------------------|
d|-0-0-0-0-0--0-0-0-0-0---0-0-0-0-0--0-0-0-0-0-0-------------------|
a|-----------------------------------------------------------------|
e|-----------------------------------------------------------------|

e|-----------------------------------------------------------------|
b|-3-3-3-3-1--0-0-0-0-0---3-3-3-3-1--0-0-0-0-0-0-------------------|
g|-4-2-4-2-0--4-2-0-2-0---4-2-4-2-0--4-2-0-0-2-0-------------------|
d|-0-0-0-0-0--0-0-0-0-0---0-0-0-0-0--0-0-0-0-0-0-------------------|
a|-----------------------------------------------------------------|
e|-----------------------------------------------------------------|

e|-----------------------------------------------------------------|
b|-3-3-3-3-1--0-0-0-0-0---3-3-3-3-1--0-0-0-0-0-0-------------------|
g|-4-2-4-2-0--4-2-0-2-0---4-2-4-2-0--4-2-0-0-2-0-------------------|
d|-0-0-0-0-0--0-0-0-0-0---0-0-0-0-0--0-0-0-0-0-0-------------------|
a|-----------------------------------------------------------------|
e|-----------------------------------------------------------------|

outro

e|-----------------------------------------------------------------|
b|-----------------------------------------------------------------|
g|-----04p0-----04p0-----04p0--------------0-----------------------|
d|-5-5------5-5------5-5------5------------5-----------------------|
a|-5-5------5-5------5-5------5------------5-----------------------|
e|-----------------------------------------------------------------|

p=pull off
v=vibrato
h=hammer on
b=bend
/=slide 
x=pick srape

tabbed by wyatt333
Comments