Ac Dc - Meltdown Chords & Tabs

 

Meltdown Chords & Tabs

Ac Dc Chords & Tabs

Version: 2 Type: Tab 0 ratings
1 star 2 stars 3 stars 4 stars 5 stars
comments

Meltdown Tab

#----------------------------------PLEASE NOTE---------------------------------#
#This file is the author's own work and represents their interpretation of the #
#song. You may only use this file for private study, scholarship, or research. #
#------------------------------------------------------------------------------##


ACDC
Meltdown
Stiff Upper Lip

Well this is my first tab submission so you're gonna have to bear with me on this
one..I have the I have everything but the solo, I think every guitarist should do
their own solo's.

Here goes,

I think he tunes down 1/2 step

INTRO-VERSE/distorted

e-----------0-------------0--------|
B--------------3--0h2--------------|
G---0h1----------------------------|
D----------------------------------|
A----------------------------------|
E----------------------------------|
[ Tab from: http://www.guitartabs.cc/tabs/a/ac_dc/meltdown_tab_ver_2.html ]
CHORUS
Distorted
e-----2----------------------------3-------------------------|
B----(3)-------------------------(3)-------------------------|
G----------5--7--5--7--5-------------5--7--5--7--5-----------|
D----------5--7--5--7--5-------------5--7--5--7--5-----------|
A----------3--5--3--5--3-------------3--5--3--5?3------------|
E------------------------------------------------------------|

Like I said this is my FIRST TAB so you are gonna have to make do with that. You should be able to work 
it and get it right. I have looked all over the internet and
There was no trace of this song anywhere so I decided to do it myself. I am still working on the rhythm 
and whenever I get that I?ll post it. Again, the chorus may
not sound perfect so you can mess around with it and get it. Remember when the uhhh verse breaks in you 
play the riff faster than the intro?.Thanks for your time..

Tabbed By: Brandon R.
p.s. If you do figure out the song and find a mistake feel free to change it and repost it.
Comments