Ac Dc - Love Hungry Man Chords & Tabs

 

Love Hungry Man Chords & Tabs

Ac Dc Chords & Tabs

Version: 2 Type: Bass Tab

Love Hungry Man Bass Tab

I tab this song early by memory and it stunk so I tab it again. This is definitively it. 
is a good song if you want make people laugh and it's from one of Ac/Dc's greatest albums!

Intro
|--------------|
|--------------|
|--5-----------|
|-----2--3--5--|  X2

Verse 1
|------------------------------|
|------------------------------|
|--5--------6-5-3--------------|
|-----2--3--------5-3-5-5-3-5--|    X2

Verse 1 Part 2
|----------------------|
|----------------------|
|--6-5-3---------------|
|--------5-3-5-5-3-5---|  X4

Chorus
|------------------------------|
|------------------------------|
|--5--------6-5-3--------------|
|-----2--3--------5-3-5-5-3-5--|  X2

Verse 2
|-------------|
|-------------|
|-------------|
|--3-5-5-3-5--|   X8

Chorus
|------------------------------|
|------------------------------|
|--5--------6-5-3--------------|
|-----2--3--------5-3-5-5-3-5--|  X2

Solo
|---------------------------------------|
|----2-3-2------------------------------|
|--3---------2-3-2----------------------|
|----------3--------5-5-3-5--3-5-5-3-5--|
[ Tab from: http://www.guitartabs.cc/tabs/a/ac_dc/love_hungry_man_btab_ver_2.html ]
|---------------------------------------|
|----4-5-4------------------------------|
|--5---------4-5-4----------------------|
|----------5--------5-5-3-5--3-5-5-3-5--|

|---------------------------------------|
|-----2-3-2-------------4-5-4-----------|
|---3---------2-3-2---5---------4-5-4---|
|-----------3-----------------5---------|

|---------------------------------------|
|----2-3-2------------------------------|
|--3---------2-3-2----------------------|
|----------3--------5-5-3-5--3-5-5-3-5--|
                   |....................|-> Play twice!

After Solo
|--------------|
|--------------|
|--5-----------|
|-----2--3--5--|  X2

Chorus
|------------------------------|
|------------------------------|
|--5--------6-5-3--------------|
|-----2--3--------5-3-5-5-3-5--|  X8

Outro
|---------------------------------------|
|-----2-3-2-------------4-5-4-----------|
|---3---------2-3-2---5---------4-5-4---|
|-----------3-----------------5---------|

|-------------------------------------------|
|------------------------------12-12-14-12--|
|-------------------------------------------|
|--5-5-3-5--5-5-3-5--5-5-3-5----------------|

Well I hope yoou like this song as much as I do. I'm having my friend work on tabing the 
parts. Any questions? Email me at Just_in_bell@yahoo.com