Ac Dc - Live Wire Chords & Tabs

 

Live Wire Chords & Tabs

Ac Dc Chords & Tabs

Version: 1 Type: Tab 0 ratings
1 star 2 stars 3 stars 4 stars 5 stars
comments

Live Wire Tab

By:ac/dc
song:Live Wire
tabed by: robert m (acdcdoors5@aol.com) I love you jill



Intro:                                                                      4x
E|------------------|-------------------|-------------------|-------------------||
B|------------------|-------------------|-------------------|-------------------||
G|*-----------------|----------------2--|-------------------|----------------4-*||
D|*-----------------|----------------2--|----------------2--|----------------4-*||
A|------------------|----------------0--|----------------2--|----------------2--||
E|------------------|-------------------|----------------0--|-------------------||
                                                                              2x
|------------------|--------------------|------------------|--------------------||
|------------------|--------------------|------------------|--------------------||
|*-----------------|-----------------4--|------------------|-----------------4-*||
|*-----------------|------------2----4--|------------------|------------2----4-*||
|------------------|------------2----2--|------------------|------------2----2--||
|------------------|------------0-------|------------------|------------0-------||
                          both guitars:
|------------------|---------------------|-------------------|---------------------|
|------------------|---------------------|-------------------|---------------------|
|------------------|--------2---------4--|--4----------------|--------2---------4--|
|------------------|--------2----2----4--|--4----------------|--------2----2----4--|
|------------------|--------0----2----2--|--2----------------|--------0----2----2--|
|------------------|-------------0-------|-------------------|-------------0-------|

|-------------------|---------------------|-------------------|---------------------|
|-------------------|---------------------|-------------------|---------------------|
|--4----------------|--------2---------4--|--4----------------|--------2---------4--|
|--4----------------|--------2----2----4--|--4----------------|--------2----2----4--|
|--2----------------|--------0----2----2--|--2----------------|--------0----2----2--|
|-------------------|-------------0-------|-------------------|-------------0-------|
                                            well if you're lookin...
|-------------------|---------------------|-------------------|---------------------|
|-------------------|---------------------|-------------------|---------------------|
|--4----------------|--------2---------4--|--4----------------|--------2---------4--|
|--4----------------|--------2----2----4--|--4----------------|--------2----2----4--|
|--2----------------|--------0----2----2--|--2----------------|--------0----2----2--|
|-------------------|-------------0-------|-------------------|-------------0-------|
[ Tab from: http://www.guitartabs.cc/tabs/a/ac_dc/live_wire_tab.html ]
|-------------------|---------------------|-------------------|---------------------|
|-------------------|---------------------|-------------------|---------------------|
|--4----------------|--------2---------4--|--4----------------|--------2---------4--|
|--4----------------|--------2----2----4--|--4----------------|--------2----2----4--|
|--2----------------|--------0----2----2--|--2----------------|--------0----2----2--|
|-------------------|-------------0-------|-------------------|-------------0-------|
                                            I'm as cool...
|-------------------|---------------------|---------------------|---------------------|
|-------------------|---------------------|---------------------|---------------------|
|--4----------------|--------2---------4--|--4---------------4--|--------2---------4--|
|--4----------------|--------2----2----4--|--4----------2----4--|--------2----2----4--|
|--2----------------|--------0----2----2--|--2----------2----2--|--------0----2----2--|
|-------------------|-------------0-------|-------------0-------|-------------0-------|

|---------------------|---------------------|---------------------|---------------------|
|---------------------|---------------------|---------------------|---------------------|
|--4---------------4--|--------2---------4--|--4---------------4--|--------2---------4--|
|--4----------2----4--|--------2----2----4--|--4----------2----4--|--------2----2----4--|
|--2----------2----2--|--------0----2----2--|--2----------2----2--|--------0----2----2--|
|-------------0-------|-------------0-------|-------------0-------|-------------0-------|
                              to chorus:        live wire...
|---------------------|------------------------|-------------------|--------------------|
|---------------------|------------------------|--3----------------|--3----3------------|
|--4---------------4--|----4--4----4--4--4--4--|--0----------------|--0----0------------|
|--4----------2----4--|----4--4----4--4--4--4--|--0----------------|--0----0------------|
|--2----------2----2--|----2--2----2--2--2--2--|-------------------|--------------------|
|-------------0-------|------------------------|--3----------------|--3----3------------|
 live wire...                             live wire...
|-------------------|--------------------|-------------------|--------------------|
|-------------------|--------------------|--3----------------|--3----3------------|
|--4----------------|--4----4------------|--0----------------|--0----0------------|
|--4----------------|--4----4------------|--0----------------|--0----0------------|
|--2----------------|--2----2------------|-------------------|--------------------|
|-------------------|--------------------|--3----------------|--3----3------------|
                                            to verse:
|--------------------------|--------------------------|
|--------------------------|--------------------------|
|--------------------------|--------------------------|
|--4--4--4--4--4--4--4--4--|--4--4--4--4--4--4--4--4--|
|--4--4--4--4--4--4--4--4--|--4--4--4--4--4--4--4--4--|
|--2--2--2--2--2--2--2--2--|--2--2--2--2--2--2--2--2--|

after 2nd chorus:
|--------------------------|--------------------------|------------------------|------------------------|
|--------------------------|--------------------------|------------------------|------------------------|
|--------------------------|--------------------------|----------------7-------|----------------7-------|
|--4--4--4--4--4--4--4--4--|--4--4--4--4--4--4--4--9--|----7--9--7--9-------9--|----7--9--7--9-------9--|
|--4--4--4--4--4--4--4--4--|--4--4--4--4--4--4--4-----|------------------------|------------------------|
|--2--2--2--2--2--2--2--2--|--2--2--2--2--2--2--2-----|------------------------|------------------------|

Comments