Ac Dc - Live Wire Chords & Tabs

 

Live Wire Chords & Tabs

Ac Dc Chords & Tabs

Version: 3 Type: Bass Tab 0 ratings
1 star 2 stars 3 stars 4 stars 5 stars
comments

Live Wire Bass Tab

   
AC/DC
LIVE WIRE
TNT ALBUM 1979
- BASS
- STANDARD TUNING


INTRO/VERSE                                          "Well if your lookin.."
G-----------------|-----------------|-------------|-----|-----------------|
D-----------------|-----------------|-------------|-----|-----------------|
A-----------------|-----------------|-------------|-----|-----------------|
E-7-7-7-7-7-7-7-7-|-7-7-7-7-7-7-7-7-|--etc.-etc.--|-3/7-|-7-7-7-7-7-7-7-7-|
                                                  (quick slide before vocals
                                                    come in.)

G-----------------|-------------|
D-----------------|-------------|
A-----------------|-------------|
E-7-7-7-7-7-7-7-7-|--etc.-etc.--|

CHORUS
G-------------------------------------------|
D-------------------------------------------|
A-------------------------------------------|
E-3--3-3--7--7-7--3--3-3--1-1-1-1-1-1-1-1-1-|
                           "Gonna set this town on fire!!"
G-----------------|-----------------|-------------|-----|-----------------|
D-----------------|-----------------|-------------|-----|-----------------|
A-----------------|-----------------|-------------|-----|-----------------|
E-7-7-7-7-7-7-7-7-|-7-7-7-7-7-7-7-7-|--etc.-etc.--|-3/7-|-7-7-7-7-7-7-7-7-|
                                                         vocals come in here
G-----------------|-------------|
D-----------------|-------------|
A-----------------|-------------|
E-7-7-7-7-7-7-7-7-|--etc.-etc.--|

CHORUS
G-------------------------------------------|
D-------------------------------------------|
A-------------------------------------------|
E-3--3-3--7--7-7--3--3-3--1-1-1-1-1-1-1-1-1-|

____________________________________________________________________________
[ Tab from: http://www.guitartabs.cc/tabs/a/ac_dc/live_wire_btab_ver_3.html ]
GUITAR SOLO
G-------------|  |-------------|  |---------------------------------------|
D-------------|  |-------------|  |---------------------------------------|
A-3-0-3-0-3-5-|  |-2-0-2-0-2-5-|  |---------------------------------------|
E-------------|x8|-------------|x8|-7--7-7--3--3-3--7--7-7--1-1-1-1-1-1-1-|

____________________________________________________________________________

G----------|  |----------------|----------|
D----------|  |----------------|----------|
A------2-2-|  |----hold-note---|------2-2-|
E-3--1-----|x4|----------------|-3--1-----|

G-----------------|-----------------|-----|-----------------|---------------|
D-----------------|-----------------|-----|-----------------|---------------|
A-----------------|-----------------|-----|-----------------|---------------|
E-7-7-7-7-7-7-7-7-|-7-7-7-7-7-7-7-7-|-3/7-|-7-7-7-7-7-7-7-7-|-7-7-7-7-7-7-7-|
                              ahhhhh!!             "...hotter than a rollin
cont'd
dice.    wilder than a drunken fight..."
G---|-----|-----------------|-----------------|
D---|-----|-----------------|-----------------|
A---|-----|-----------------|-----------------|
E-7-|-3/7-|-7-7-7-7-7-7-7-7-|-7-7-7-7-7-7-7-7-|

CHORUS
G-------------------------------------------|
D-------------------------------------------|
A-------------------------------------------|
E-3--3-3--7--7-7--3--3-3--1-1-1-1-1-1-1-1-1-|

OUTRO
G----------------|---------|
D----------------|---------|
A----------------|---------|
E-7--7-7--3--3-3-|etc.-etc.|play till vocals fade in with "Burn,burn,bur..."

G-------------------------|
D-------------------------|
A-------------------------|
E-3-3-3-3-3-3-7-7-7-7-7-7-|ect. etc.  play till song fades out

please rate and comment.

ratbollocks
Comments