Ac Dc - Let There Be Rock Chords & Tabs

 

Let There Be Rock Chords & Tabs

Ac Dc Chords & Tabs

Version: 7 Type: Tab 0 ratings
1 star 2 stars 3 stars 4 stars 5 stars
comments

Let There Be Rock Tab

Let There Be Rock Tab by Ac/Dc
Tab by Voytazz


(Intro) Riff 1
e |-------------------------------------------------------------------|
B |-------------------------------------------------------------------|
G |----------------------------------------------2--------------------|
D |-0--2-2-------------0--2-2--------------0-2-2-2-2-2-0-2-2----------|  3X
A |-0--2-2-------------0--2-2--------------0-2-2-0-2-2-0-2-2----------|
E |-3--0-0--0-0-0-0-0--3--0-0-0-0-0-0-0----3-0-0---0-0-3-0-0-0-0-0-0-0|
	    . . . . .         . . . . .                      . . . . .

(Verse)
In the beginning...
...

... LET THERE BE ROCK!!!!
RIFF 2
e |------------------------------------------------------------|
B |------------------------------------------------------------|
G |-2-2--x---x-2-2--x---x-2-2--x---x-2-2--x---x-2-2--x---x-2-2-|
D |-2-2--x---x-2-2--x---x-2-2--x---x-2-2--x---x-2-2--x---x-2-2-|
A |-0-0--x---x-0-0--x---x-0-0--x---x-0-0--x---x-0-0--x---x-0-0-|
E |------------------------------------------------------------|

e |------------------------------------|
B |------------------------------------|
G |-x---x-2-2--x---x-2-2--x---x-2-2--x-|
D |-x---x-2-2--x---x-2-2--x---x-2-2--x-|
A |-x---x-0-0--x---x-0-0--x---x-0-0--x-|
E |------------------------------------|

Solo 1 (Guitar 2 Plays Riff 2)

e |-------------------------------------------------------------|
B |-------------------------------------------------------------|
G |-------------------------------------5--7-7(9)-7-5--7-5~~~~~-|
D |---7---7---7-\-------7---7---7\----7-------------------------|
A |-------------------------------------------------------------|
E |-------------------------------------------------------------|

e |-------------------------------------------------------------|
B |-------------------------------------------------------------|
G |---5-7-7(9)-7-5-7---5-7-7(9)-7---5-5-----5---5-5---5-5---5-5-|
D |-7----------------7------------7-----7-7---7-----7-----7-----|
A |-------------------------------------------------------------|
E |-------------------------------------------------------------|


e |------------------------------------------------------------|
B |------------------------------------------------------------|
G |---5-5---5-5---5---5-5---5-5---5-5---5-5---5-5---5-5---5-5--|
D |-7-----7-----7---7-----7-----7-----7-----7-----7-----7------|
A |------------------------------------------------------------|
E |------------------------------------------------------------|


e |------------------------------------------------------------|
B |------------------------------------------------------------|
G |---5-5---5-5---7---7-7---7-7---7-7---7-7---7---7-7---7-7----|
D |-7-----7-----7---9-----9-----9-----9-----9---9-----9--------|
A |------------------------------------------------------------|
E |------------------------------------------------------------|

e |--------------------------17--------------------------------|
B |-------------------20(22)----20-17--------------------------|
G |---7-7---7-7---7-------------------17-17----19-17-----------|
D |-9-----9-----9---------------------------19-------19--------|
A |------------------------------------------------------------|
E |------------------------------------------------------------|


e |-5-------5-5-------5-5-------5-5-------5-5-------5-------5~~|
B |---8(10)-----8(10)-----8(10)-----8(10)-----8(10)---8(10)----|
G |------------------------------------------------------------|
D |------------------------------------------------------------|
A |------------------------------------------------------------|
E |------------------------------------------------------------|

e |-12h14p12h14p12h15~~~~~~------------------------------------|
B |------------------------------------------------------------|
G |------------------------------------------------------------|
D |------------------------------------------------------------|
A |------------------------------------------------------------|
E |------------------------------------------------------------|

----- End Solo 1

Riff 1
e |-------------------------------------------------------------------|
B |-------------------------------------------------------------------|
G |----------------------------------------------2--------------------|
D |-0--2-2-------------0--2-2--------------0-2-2-2-2-2-0-2-2----------|  3X
A |-0--2-2-------------0--2-2--------------0-2-2-0-2-2-0-2-2----------|
E |-3--0-0--0-0-0-0-0--3--0-0-0-0-0-0-0----3-0-0---0-0-3-0-0-0-0-0-0-0|
	    . . . . .         . . . . .                      . . . . .


And it came to pass....
...

LET THERE BE ROCK!!!!

RIFF 2
e |------------------------------------------------------------|
B |------------------------------------------------------------|
G |-2-2--x---x-2-2--x---x-2-2--x---x-2-2--x---x-2-2--x---x-2-2-|
D |-2-2--x---x-2-2--x---x-2-2--x---x-2-2--x---x-2-2--x---x-2-2-|
A |-0-0--x---x-0-0--x---x-0-0--x---x-0-0--x---x-0-0--x---x-0-0-|
E |------------------------------------------------------------|

e |------------------------------------|
B |------------------------------------|
G |-x---x-2-2--x---x-2-2--x---x-2-2--x-|
D |-x---x-2-2--x---x-2-2--x---x-2-2--x-|
A |-x---x-0-0--x---x-0-0--x---x-0-0--x-|
E |------------------------------------|


Solo 2 (Guitar plays Riff 2)
e |------------------------------------------------------------|
B |------------------------------------------------------------|
G |------------------------------------------------------------|
D |--14\-------------------------------------------------------|
A |----------0-0-3-4-0-0-3-4-0-0-3-4-0-0-3-4-0-0-3-4-0-0-3-4---|
E |------------------------------------------------------------|
[ Tab from: http://www.guitartabs.cc/tabs/a/ac_dc/let_there_be_rock_tab_ver_7.html ]
e |-----------------|------------------------------------------|
B |-----------------|------------------------------------------|
G |-----------------|------------------------------------------|
D |-----------------|--------2-2-4-4-5-5-4-4-2-2---------------|
A |-0-0-3-4-0-0-3-4-|0-0-4-4---------------------4-4-0-0-4-4---|
E |-----------------|------------------------------------------|

e |------------------------------------------------------------|
B |------------------------------------------------------------|
G |------------------------------------------------------------|
D |2-2-4-4-5-5-4-4-2-2-------------4-4-6-6-7-7-6-6-4-4---------|
A |--------------------4-4-2-2-6-6---------------------6-6-2-2-|
E |------------------------------------------------------------|

e |--------------------------------9-9--8-------8-------8------|
B |-------------------------------10------10------10------10---|
G |--------------------------------9---------11------11------11|
D |----4-4-6-6-7-7-6-6-4-4-------------------------------------|
A |6-6---------------------6-6---------------------------------|
E |------------------------------------------------------------|

e |-8-------8-------8-------8-------8-------8-------8-----8----|
B |---10------10------10------10------10------10----------10---|
G |------11------11------11------11------11------11---11-------|
D |------------------------------------------------------------|
A |------------------------------------------------------------|
E |------------------------------------------------------------|

e |-12h14p12h14p12h15~~~~~~------------------------------------|
B |------------------------------------------------------------|
G |------------------------------------------------------------|
D |------------------------------------------------------------|
A |------------------------------------------------------------|
E |------------------------------------------------------------|

---- End Solo 2

Riff 1
e |-------------------------------------------------------------------|
B |-------------------------------------------------------------------|
G |----------------------------------------------2--------------------|
D |-0--2-2-------------0--2-2--------------0-2-2-2-2-2-0-2-2----------|  3X
A |-0--2-2-------------0--2-2--------------0-2-2-0-2-2-0-2-2----------|
E |-3--0-0--0-0-0-0-0--3--0-0-0-0-0-0-0----3-0-0---0-0-3-0-0-0-0-0-0-0|
	    . . . . .         . . . . .                      . . . . .

One night in the club called the Shakin' hand...

Riff 3
e |----------------------|
B |----------------------|
G |---------2------------|
D |-2-0-2-2-2-2-2-0-2/---| 4x
A |-2-0-2-2-0-2-2-0-2/---|
E |-0-3-0-0---0-0-3-0/---|


RIFF 2
e |------------------------------------------------------------|
B |------------------------------------------------------------|
G |-2-2--x---x-2-2--x---x-2-2--x---x-2-2--x---x-2-2--x---x-2-2-|
D |-2-2--x---x-2-2--x---x-2-2--x---x-2-2--x---x-2-2--x---x-2-2-|
A |-0-0--x---x-0-0--x---x-0-0--x---x-0-0--x---x-0-0--x---x-0-0-|
E |------------------------------------------------------------|

e |------------------------------------|
B |------------------------------------|
G |-x---x-2-2--x---x-2-2--x---x-2-2--x-|
D |-x---x-2-2--x---x-2-2--x---x-2-2--x-|
A |-x---x-0-0--x---x-0-0--x---x-0-0--x-|
E |------------------------------------|

Solo 3 Only last fragment
 You must use a pice....

 All of the notes, must be play very fast.
___________________________________________________________________
e-------------------------------------------------------------------|
b--7-7-7-7-7-7-7-7-7-7-7-7-7-7-7--7--7--7--7--7--7--7-7-7-7-7-7-7---|
g--8-8-8-8-8-8-8-9-9-9-9-9-9-9-11-11-11-11-11-11-11-9-9-9-9-9-9-9---| That
d--9-9-9-9-9-9-9-9-9-9-9-9-9-9-9--9--9--9--9--9--9--9-9-9-9-9-9-9---|line x2
a-------------------------------------------------------------------|
e-------------------------------------------------------------------|
____________________________________________________________________
Then....
e-----------------------------|
b--7-7-7-7-7--7--7-7----------|
g--8-8-9-9-11-11-9-9----------|That line x4
d--9-9-9-9-9--9--9-9----------|
a-----------------------------|
e-----------------------------|
_________________________________
then...
e-------------------------------------|
b-------------------------------------|
g---10-12-12-12-12-12-12-12-----------|that line x4
d---12-12-12-12-12-12-12-12-----------|
a-------------------------------------|
e-------------------------------------|
__________________________________________________________
e----------------------------------------------------------------|
b----------------------------------------------------------------|
g---14-14-12--15-15-13--17-17-15--19-19-17-----------------------|Only 1 time
d---14-14-14--15-15-15--17-17-17--19-19-19-----------------------|
a----------------------------------------------------------------|
e----------------------------------------------------------------|
_____________________________________________________
e---18-18-18-18-18-18-18-19-19-19-19-19-19-19---------|
b---19-19-19-19-19-19-19-20-20-20-20-20-20-20---------|
g---20-20-20-20-20-20-20-21-21-21-21-21-21-21---------|   x2
d-----------------------------------------------------|
a-----------------------------------------------------|
e-----------------------------------------------------|
____________________________________
e---18-18-18-18-19-19-19-19-------------------------|
b---19-19-19-19-20-20-20-20-------------------------|
g---20-20-20-20-21-21-21-21-------------------------|
d---------------------------------------------------|x2
a---------------------------------------------------|
e---------------------------------------------------|

 That solo is a very nice trick. I think it's correct.
Angus The master!
Check for Voytazz tabulature!
Comments