Ac Dc - Let There Be Rock Chords & Tabs

 

Let There Be Rock Chords & Tabs

Ac Dc Chords & Tabs

Version: 6 Type: Tab 0 ratings
1 star 2 stars 3 stars 4 stars 5 stars
comments

Let There Be Rock Tab

   
Let There Be Rock
AC/DC
Let there be rock 1977
tabbed: Wyatt Best  (nov 5,2004)
concieved: Angus, Malocom, Bon 

intro/verse
e------------------------------------------------|
b------------------------------------------------|
g-------------------------------0----------------|play this 4 times
d-5-0--0-0-0--5-0--0-0-0-0--3-0-2-0-3-0--0-0-0-0-|*note dont play during 
a-5-2--2-2-2--5-2--2-2-2-2--3-2---2-3-2--2-2-2-2-|lyrics
E-3-----------3-------------5-------5------------|

In the beggining, back in 1955.
Man didn't know bout a rock n' roll show, N all that jive.
The white man had the shmaltz, the black man had the blues.
No one knew what they was gonna do.
But Tschaikovsky had the news he said
Let the be Sound, and there was sound
Let there be Light, there was light
Let there be Drums, and there were drums
Let there be Guitar, and there was guitar
LET THERE BE ROCK!

e------------------------------------------------------------|
b------------------------------------------------------------|
g-2-2--x---x-2-2--x---x-2-2--x---x-2-2--x---x-2-2--x---x-2-2-|
d-2-2--x---x-2-2--x---x-2-2--x---x-2-2--x---x-2-2--x---x-2-2-|
a-0-0--x---x-0-0--x---x-0-0--x---x-0-0--x---x-0-0--x---x-0-0-|
E------------------------------------------------------------|

e---------------------------|
b---------------------------|
g-x---x-2-2--x---x-2-2--x---|*rhythm guitar continue to play this
d-x---x-2-2--x---x-2-2--x---|through solo
a-x---x-0-0--x---x-0-0--x---|
E---------------------------|

Solo 1
e---------------------------------------------------------------------------|
b---------------------------------------------------------------------------|
g--------------------------------5-7-7(9)-7-5-7-5^----5-7-7/9-7-5-7-7/9-7-5-|
d-5/7--7-7-7^---5/7--7-7-7^--5/7--------------------7-----------------------|
a---------------------------------------------------------------------------|
E---------------------------------------------------------------------------|

e-------------------------------------------------------------|
b-------------------------------------------------------------|
g---5--5-5---5-5---5--5-5---5-5---5--5-5---5-5---5--5-5---5-5-|             
d-7--------7-----7--------7-----7--------7-----7--------7-----|
a-------------------------------------------------------------|
E-------------------------------------------------------------|

e------------------------------------------------17-------------------------|
b---------------------------------------------20---20-17-17-19-17----17-----|
g-7--7-7---7-7---7--7-7---7-7---7--7-7---7-7----------------------19---19-17|
d--------9-----9--------9-----9--------9------------------------------------|
a---------------------------------------------------------------------------|
E---------------------------------------------------------------------------|
                     Let last note ring
e---------12-14-12-15----|
b------------------------|
g-14---------------------|
d------------------------|
a------------------------|
E------------------------|

verse
e------------------------------------------------|
b------------------------------------------------|
g-------------------------------0----------------|play this 4 more times
d-5-0--0-0-0--5-0--0-0-0-0--3-0-2-0-3-0--0-0-0-0-|
a-5-2--2-2-2--5-2--2-2-2-2--3-2---2-3-2--2-2-2-2-|
E-3-----------3-------------5-------5------------|

And it came to pass, that rock n' roll was born
All across the land every rockn' band was blowing up a storm 
and in every bar there was a superstar with a seven year ich
and there was 15 million fingers learning how to play
and you could hear the fingers picken 
and this is what they had to say
Let there be light
sound
drums
guitar
ohh LET THERE BE ROCK!

then.
[ Tab from: http://www.guitartabs.cc/tabs/a/ac_dc/let_there_be_rock_tab_ver_6.html ]
e------------------------------------------------------------|
b------------------------------------------------------------|
g-2-2--x---x-2-2--x---x-2-2--x---x-2-2--x---x-2-2--x---x-2-2-|
d-2-2--x---x-2-2--x---x-2-2--x---x-2-2--x---x-2-2--x---x-2-2-|
a-0-0--x---x-0-0--x---x-0-0--x---x-0-0--x---x-0-0--x---x-0-0-|
E------------------------------------------------------------|

e---------------------------|
b---------------------------|
g-x---x-2-2--x---x-2-2--x---|
d-x---x-2-2--x---x-2-2--x---|
a-x---x-0-0--x---x-0-0--x---|
E---------------------------|

solo 2
e---------------------------------------------------------------------------|
b---------------------------------------------------------------------------|
g---------------------------------------------------------------------------|
d---------------------------------------------------------------------------|
a-0--0-3-4-0-0-3-4-0-0-3-4-0-0-3-4-0-3-4-0-0-3-4-0-0-3-4-0-0-3-4-0-0-3-4-0-0|
E---------------------------------------------------------------------------|

e---------------------------------------------------------------------------|
b---------------------------------------------------------------------------|
g---------------------------------------------------------------------------|
d---------------------------------------------------------------------------|
a-3-4-0-0-3-4-0-0-3-4-0-0-3-4-0-0-3-4-0-0-3-4-0-0-3-4-0-0-4-4-7-7-9-9-10-10-|
E---------------------------------------------------------------------------|

e----------------------------------------------------------------------------
b----------------------------------------------------------------------------
g---------------------------------------------------------------4-4----------
d-------------------------------------------------------4-4-6-6----6-6-4-4---
a-9-9-7-7-4-4-0-0-4-4-7-7-9-9-10-10-9-9-7-7-4-4-2-2-6-6-------------------6-6
E----------------------------------------------------------------------------

e-----------------------------------8----8----8----8-----8-------12-14-12-15|
b------------------------------------10---10---10---10----10----------------|
g-----------------4-4------------------11---11---11---11----11--------------|
d---------4-4-6-6-----6-6-4-4-----------------------------------------------|
a-2-2-6-6---------------------6-6-------------------------------------------|
E---------------------------------------------------------------------------|

verse
e------------------------------------------------|
b------------------------------------------------|
g-------------------------------0----------------|play this 4 more times
d-5-0--0-0-0--5-0--0-0-0-0--3-0-2-0-3-0--0-0-0-0-|
a-5-2--2-2-2--5-2--2-2-2-2--3-2---2-3-2--2-2-2-2-|
E-3-----------3-------------5-------5------------|

fill in last verse
e-------------|*note: play this where it says "(fill)"
b-------------|
g-----0-------|
d-3-0-2-0-3-0-|
a-3-2---2-3-2-|
E-5-------5---|

One night in a club called the shaking hand 
(fill)
There was a 42 decible rocking band
(fill)
The music was good and the music was loud
(fill)
then the singer turned and said to the crowd
(fill)
LET THERE BE ROCK!

im soo sorry i dont know the last solo i usually improvise it like angus in concerts
while throwing in the angus lick some where

angus lick
e-------------------------------------|  |------------------|
b-7-4-0-7-4-0-8-5-0-8-5-0-9-6-0-9-6-0-|or|-5-3-0-5-3-0-5-3-0|usually getting
g-------------------------------------|  |------------------|faster and 
d-------------------------------------|  |------------------|faster,
a-------------------------------------|  |------------------|sometimes no 
E-------------------------------------|  |------------------|picking

i do know it starts out like this though
e-------------------------|
b-------------------------|
g-7(9)-7(9)-7(9)-7(9)-5---|
d-----------------------7-|
a-------------------------|
E-------------------------|
well thats it plese vote on this one it would be much appreciated and yeah its  great song good luck.
Comments