Ac Dc - Let There Be Rock Chords & Tabs

 

Let There Be Rock Chords & Tabs

Ac Dc Chords & Tabs

Version: 2 Type: Bass Tab 0 ratings
1 star 2 stars 3 stars 4 stars 5 stars
comments

Let There Be Rock Bass Tab

   
Let there be rock by AC/DC
Standard Tuning

G|----------------|---------------|---------------|----------------|
D|*---------------|---------------|---------------|---------------*|
A|*---------------|---------------|---------------|---------------*|
E|-0-0-0-0-0-0-0-3|0-0-0-0-0-0-0-3|--0-0-5---0-0-3|0-0-0-0-0-0-0-3-|

                    x29
G|-------------------|
D|*-----------------*|
A|*-----------------*|
E|--0-0-0-0-0-0-0-3--|

	 	       x15
G|---|-----------------|---------------|
D|---|*---------------*|---------------|
A|-3-|*0-0-0-0-0-0-0-3*|0-0-0-0-0-0-0-5|
E|---|-----------------|---------------|

		   x3
G|-----------------|---------------|
D|*---------------*|---------------|
A|*2-2-2-2-2-2-2-5*|2-2-2-2-2-2-2-3|
E|-----------------|---------------|


G|---------------|---------------|
D|---------------|---------------|
A|0-0-0-0-0-0-0-3|0-0-0-0-0-0-0-0|
E|---------------|---------------|

G|---------------|---------------|---------------|
D|---------------|---------------|---------------|
A|0------0-----0-|--0-----0-----0|0~~~-----------|
E|---------------|---------------|---------------|
	              
G|---------------|---------------|---------------|---------------|
D|---------------|---------------|---------------|---------------|
A|---------------|---------------|---------------|---------------|
E|0-0-0-0-0-0-0-3|0-0-0-0-0-0-0-3|--0-0-5---0-0-3|0-0-0-0-0-0-0-3|

G|---------------|---------------|---------------|---------------|
D|---------------|---------------|---------------|---------------|
A|---------------|---------------|---------------|---------------|
E|0-0-0-0-0-0-0-3|0-0-0-0-0-0-0-3|--0-0-5---0-0-3|0-0-0-0-0-0-0-0|
[ Tab from: http://www.guitartabs.cc/tabs/a/ac_dc/let_there_be_rock_btab_ver_2.html ]
 	 	   x29
G|-----------------|
D|*---------------*|
A|*---------------*|
E|-0-0-0-0-0-0-0-3-|

	 	   x20
G|-----------------|---------------|
D|*---------------*|---------------|
A|*0-0-0-0-0-0-0-3*|0-0-0-0-0-0-0-5|
E|-----------------|---------------|

		    x2
G|-----------------|---------------|
D|*---------------*|---------------|
A|*2-2-2-2-2-2-2-5*|2-2-2-2-2-2-2-3|
E|-----------------|---------------|


G|---------------|---------------|
D|---------------|---------------|
A|0-0-0-0-0-0-0-3|0-0-0-0-0-0-0-0|
E|---------------|---------------|


G|---------------|---------------|---------------|
D|---------------|---------------|---------------|
A|0------0-----0-|--0-----0-----0|0~~~-----------|
E|---------------|---------------|---------------|


G|---------------|---------------|---------------|---------------|
D|---------------|---------------|---------------|---------------|
A|---------------|---------------|---------------|---------------|
E|0-0-0-0-0-0-0-3|0-0-0-0-0-0-0-3|--0-0-5---0-0-3|0-0-0-0-0-0-0-3|

		                                                 x4
G|---------------|---------------|---------------|---------------|
D|*--------------|---------------|---------------|--------------*|
A|*--------------|---------------|---------------|--------------*|
E|0-0-0-0-0-0-0-3|0-0-0-0-0-0-0-3|--0-0-5---0-0-3|0-0-0-0-0-0-0-0|

	 	   x20				     x8
G|-----------------|---------------|-----------------|
D|*---------------*|---------------|*---------------*|
A|*0-0-0-0-0-0-0-3*|0-0-0-0-0-0-0-5|*2-2-2-2-2-2-2-5*|
E|-----------------|---------------|-----------------|

		    x32
G|-----------------|
D|*---------------*|
A|*2--2---2---2--2*|
E|-----------------|

		    x2
G|-----------------|
D|*---------------*|
A|*2-2-2-2-2-2-2-2*|
E|-----------------|
Comments