Ac Dc - Jailbreak Chords & Tabs

 

Jailbreak Chords & Tabs

Ac Dc Chords & Tabs

Version: 3 Type: Bass Tab 0 ratings
1 star 2 stars 3 stars 4 stars 5 stars
comments

Jailbreak Bass Tab

   
JAILBREAK 
As recorded by AC / DC



Transcribed By Paul Bell 

 

Gtr I (E A D G) - 'Gtr. 1'


  Q=120
 4/4
  Gtr I
  E E E Q  E Q    E E E Q  E Q    E E E Q  E Q    E E E Q  E Q
|---------------|---------------|---------------|----------------|
|---------------|---------------|---------------|----------------|
|-------5--4----|-------5--4----|-------5--4----|-------5--4-----|
|-0-0-0------0--|-0-0-0------0--|-0-0-0------0--|-0-0-0------0---|


  E E E Q  E Q    E E E Q  E Q    E E E Q  E Q    E E E Q  E Q
|---------------|---------------|---------------|---------------|
|---------------|---------------|---------------|---------------|
|-------5--4----|-------5--4----|-------5--4----|-------5--4----|
|-0-0-0------0--|-0-0-0------0--|-0-0-0------0--|-0-0-0------0--|


  E E E Q  E Q    E E E Q  E Q    E E E Q  E Q    W
|---------------|---------------|---------------|------|
|---------------|---------------|---------------|------|
|-------5--4----|-------5--4----|-------5--4----|------|
|-0-0-0------0--|-0-0-0------0--|-0-0-0------0--|------|


  E E E Q  E Q    E E E Q  E Q    E E E Q  E Q    E E E Q  E Q
|---------------|---------------|---------------|---------------|
|---------------|---------------|---------------|---------------|
|-------5--4----|-------5--4----|-------5--4----|-------5--4----|
|-0-0-0------0--|-0-0-0------0--|-0-0-0------0--|-0-0-0------0--|


  E E E Q  E Q    E E E Q  E Q    E E E Q  E Q    E E E Q  E Q
|---------------|---------------|---------------|---------------|
|---------------|---------------|---------------|---------------|
|-------5--4----|-------5--4----|-------5--4----|-------5--4----|
|-0-0-0------0--|-0-0-0------0--|-0-0-0------0--|-0-0-0------0--|


  E E E Q  E Q    E E E Q  E Q    E E E Q  E Q    E E E Q  E Q
|---------------|---------------|---------------|---------------|
|---------------|---------------|---------------|---------------|
|-------5--4----|-------5--4----|-------5--4----|-------5--4----|
|-0-0-0------0--|-0-0-0------0--|-0-0-0------0--|-0-0-0------0--|


  E E E Q  E Q    E E E Q  E Q    E E E Q  E Q    E E E Q  E Q
|---------------|---------------|---------------|---------------|
|---------------|---------------|---------------|---------------|
|-------5--4----|-------5--4----|-------5--4----|-------5--4----|
|-0-0-0------0--|-0-0-0------0--|-0-0-0------0--|-0-0-0------0--|


  E E E E E E E E   E E E E E E E E   E E E E E E E E   E E E E E E E E
|-----------------|-----------------|-----------------|-----------------|
|-----------------|-----------------|-----------------|-----------------|
|-----------------|-----------------|-----------------|-----------------|
|-5-5-5-5-5-5-5-5-|-5-5-5-5-5-5-5-5-|-7-7-7-7-7-7-7-7-|-7-7-7-7-7-7-7-7-|


  E E E Q  E Q    E E E Q  E Q    E E E Q  E Q    E E E Q  E Q
|---------------|---------------|---------------|---------------|
|---------------|---------------|---------------|---------------|
|-------5--4----|-------5--4----|-------5--4----|-------5--4----|
|-0-0-0------0--|-0-0-0------0--|-0-0-0------0--|-0-0-0------0--|


  E E E Q  E Q    E E E Q  E Q    E E E Q  E Q    E E E Q  E Q
|---------------|---------------|---------------|---------------|
|---------------|---------------|---------------|---------------|
|-------5--4----|-------5--4----|-------5--4----|-------5--4----|
|-0-0-0------0--|-0-0-0------0--|-0-0-0------0--|-0-0-0------0--|


  E E E Q  E Q    E E E Q  E Q    E E E Q  E Q    E E E Q  E Q
|---------------|---------------|---------------|---------------|
|---------------|---------------|---------------|---------------|
|-------5--4----|-------5--4----|-------5--4----|-------5--4----|
|-0-0-0------0--|-0-0-0------0--|-0-0-0------0--|-0-0-0------0--|


  E E E Q  E Q    E E E Q  E Q    E E E Q  E Q    E E E Q  E Q
|---------------|---------------|---------------|---------------|
|---------------|---------------|---------------|---------------|
|-------5--4----|-------5--4----|-------5--4----|-------5--4----|
|-0-0-0------0--|-0-0-0------0--|-0-0-0------0--|-0-0-0------0--|


  E E E Q  E Q    E E E Q  E Q    E E E Q  E Q    E E E Q  E Q
|---------------|---------------|---------------|---------------|
|---------------|---------------|---------------|---------------|
|-------5--4----|-------5--4----|-------5--4----|-------5--4----|
|-0-0-0------0--|-0-0-0------0--|-0-0-0------0--|-0-0-0------0--|


  E E E Q  E Q    E E E Q  E Q    E E E Q  E Q    E E E Q  E Q
|---------------|---------------|---------------|---------------|
|---------------|---------------|---------------|---------------|
|-------5--4----|-------5--4----|-------5--4----|-------5--4----|
|-0-0-0------0--|-0-0-0------0--|-0-0-0------0--|-0-0-0------0--|

[ Tab from: http://www.guitartabs.cc/tabs/a/ac_dc/jailbreak_btab_ver_3.html ]
  E E E Q  E Q    E E E Q  E Q    E E E Q  E Q    E E E Q  E Q
|---------------|---------------|---------------|---------------|
|---------------|---------------|---------------|---------------|
|-------5--4----|-------5--4----|-------5--4----|-------5--4----|
|-0-0-0------0--|-0-0-0------0--|-0-0-0------0--|-0-0-0------0--|


  E E E E E E E E   E E E E E E E E   E E E E E E E E   E E E E E E E E
|-----------------|-----------------|-----------------|-----------------|
|-----------------|-----------------|-----------------|-----------------|
|-----------------|-----------------|-----------------|-----------------|
|-5-5-5-5-5-5-5-5-|-5-5-5-5-5-5-5-5-|-7-7-7-7-7-7-7-7-|-7-7-7-7-7-7-7-7-|


  E E E Q  E Q    E E E Q  E Q    E E E Q  E Q    E E E Q  E Q
|---------------|---------------|---------------|---------------|
|---------------|---------------|---------------|---------------|
|-------5--4----|-------5--4----|-------5--4----|-------5--4----|
|-0-0-0------0--|-0-0-0------0--|-0-0-0------0--|-0-0-0------0--|


  E E E Q  E Q    E E E Q  E Q    E E E Q  E Q    E E E Q  E Q
|---------------|---------------|---------------|---------------|
|---------------|---------------|---------------|---------------|
|-------5--4----|-------5--4----|-------5--4----|-------5--4----|
|-0-0-0------0--|-0-0-0------0--|-0-0-0------0--|-0-0-0------0--|


  E E E Q  E Q    E E E Q  E Q    E E E Q  E Q    E E E Q  E Q
|---------------|---------------|---------------|---------------|
|---------------|---------------|---------------|---------------|
|-------5--4----|-------5--4----|-------5--4----|-------5--4----|
|-0-0-0------0--|-0-0-0------0--|-0-0-0------0--|-0-0-0------0--|


  E E E Q  E Q    E E E Q  E Q    E E E Q  E Q    E E E Q  E Q
|---------------|---------------|---------------|---------------|
|---------------|---------------|---------------|---------------|
|-------5--4----|-------5--4----|-------5--4----|-------5--4----|
|-0-0-0------0--|-0-0-0------0--|-0-0-0------0--|-0-0-0------0--|


  E E E Q  E Q    E E E Q  E Q    E E E Q  E Q    E E E Q  E Q
|---------------|---------------|---------------|---------------|
|---------------|---------------|---------------|---------------|
|-------5--4----|-------5--4----|-------5--4----|-------5--4----|
|-0-0-0------0--|-0-0-0------0--|-0-0-0------0--|-0-0-0------0--|


  E E E Q  E Q    E E E Q  E Q    E E E Q  E Q    E E E Q  E Q
|---------------|---------------|---------------|---------------|
|---------------|---------------|---------------|---------------|
|-------5--4----|-------5--4----|-------5--4----|-------5--4----|
|-0-0-0------0--|-0-0-0------0--|-0-0-0------0--|-0-0-0------0--|


  E E E Q  E Q    E E E Q  E Q    E E E Q  E Q    E E E Q  E Q
|---------------|---------------|---------------|---------------|
|---------------|---------------|---------------|---------------|
|-------5--4----|-------5--4----|-------5--4----|-------5--4----|
|-0-0-0------0--|-0-0-0------0--|-0-0-0------0--|-0-0-0------0--|


  E E E Q  E Q    E E E Q  E Q    E E E Q  E Q    E E E Q  E Q
|---------------|---------------|---------------|---------------|
|---------------|---------------|---------------|---------------|
|-------5--4----|-------5--4----|-------5--4----|-------5--4----|
|-0-0-0------0--|-0-0-0------0--|-0-0-0------0--|-0-0-0------0--|


  E E E Q  E Q    E E E Q  E Q    E E E Q  E Q    E E E Q  E Q
|---------------|---------------|---------------|---------------|
|---------------|---------------|---------------|---------------|
|-------5--4----|-------5--4----|-------5--4----|-------5--4----|
|-0-0-0------0--|-0-0-0------0--|-0-0-0------0--|-0-0-0------0--|


  E E E Q  E Q
|-----------------*|
|-----------------*|
|-------5--4------*|
|-0-0-0------0----*|




--------------------------------------------------------------------------------


Duration Legend
---------------
W - whole; H - half; Q - quarter; E - 8th; S - 16th; T - 32nd; X - 64th; a - acciaccatura
+ - note tied to previous; . - note dotted; .. - note double dotted
Uncapitalized letters represent notes that are staccato (1/2 duration)
Irregular groupings are notated above the duration line
Duration letters will always appear directly above the note/fret number it represents the
duration for.  Duration letters with no fret number below them represent rests.  Multi-
bar rests are notated in the form Wxn, where n is the number of bars to rest for.  Low
melody durations appear below the staff

Tablature Legend
----------------
 h   - hammer-on
 p   - pull-off
 b   - bend
 pb  - pre-bend
 r   - bend release (if no number after the r, then release immediately)
 /\  - slide into or out of (from/to "nowhere")
 s   - legato slide
 S   - shift slide
 - natural harmonic
[n]  - artificial harmonic
n(n) - tapped harmonic
 ~   - vibrato
 tr  - trill
 T   - tap
 TP  - trem. picking
 PM  - palm muting
\n/  - tremolo bar dip; n = amount to dip
 \n  - tremolo bar down
 n/  - tremolo bar up
/n\  - tremolo bar inverted dip
 =   - hold bend; also acts as connecting device for hammers/pulls
 <> - volume swell (louder/softer)
 x   - on rhythm slash represents muted slash
 o   - on rhythm slash represents single note slash

Misc Legend
-----------
 |  - bar
||  - double bar
||o - repeat start
o|| - repeat end
*|  - double bar (ending)
 :  - bar (freetime)
 $  - Segno
 &  - Coda
Tempo markers -  = BPM(8/16=s8/s16), where s8 = swing 8ths, s16 = swing 16ths
Comments