Ac Dc - Its A Long Way To The Top Chords & Tabs

 

Its A Long Way To The Top Chords & Tabs

Ac Dc Chords & Tabs

Version: 6 Type: Tab 0 ratings
1 star 2 stars 3 stars 4 stars 5 stars
comments

Its A Long Way To The Top Tab

   
Gtr I (Eb Ab Db Gb Bb Eb) - 'Malcolm'
Gtr II (Eb Ab Db Gb Bb Eb) - 'Angus'
Gtr III (Eb Ab Db Gb Bb Eb) - 'Lead ( Fills )'

 Intro:
  Q=130
  B5
 4/4
  Gtr I
                                                  PM
  H.      E E   +E  E E E E E E E   +E  E E E E E E E
|-------------|-------------------|-------------------|
|-------------|-------------------|-------------------|
|-------------|-------------------|-------------------|
|---------x-4-|-(4)-4---x-4---x-4-|-(4)-4---x-4-----4-|
|---------x-2-|-(2)-2---x-2---x-2-|-(2)-2---x-2---0-2-|
|-------------|-------------------|-------------------|


  B5
                PM
  +E  E E E E E E E   +E  E E E E    E E E   +E  E E E E E E E
|-------------------|----------------------|-------------------|
|-------------------|----------------------|-------------------|
|-------------------|----------------------|-------------------|
|-(4)-4---x-4-----4-|-(4)-4---x-4------x-4-|-(4)-4---x-4---x-4-|
|-(2)-2---x-2---0-2-|-(2)-2---x-2------x-2-|-(2)-2---x-2---x-2-|
|-------------------|----------------------|-------------------|
|
| Gtr II
|  W                   H        T S. Q   E   +W
|-------------------|----------------------|-------------------|
|-------------------|----------------------|-------------------|
|-------------------|----------------2-----|-------------------|
|-------------------|----------------2---4-|-(4)---------------|
|-------------------|-----------2h4------2-|-(2)---------------|
|-------------------|----------------------|-------------------|


  B5
  +E  E E E E E E E   +E  E E E E E E E
|-------------------|-------------------|
|-------------------|-------------------|
|-------------------|-------------------|
|-(4)-4---x-4---x-4-|-(4)-4---x-4---x-4-|
|-(2)-2---x-2---x-2-|-(2)-2---x-2---x-2-|
|-------------------|-------------------|
|
|                      >
| +W                  +W
|-------------------|-------------------|
|-------------------|-------------------|
|-------------------|-------------------|
|-(4)---------------|-(4)---------------|
|-(2)---------------|-(2)---------------|
|-------------------|-------------------|


                     PM                  PM
    +E  E E E E    E E E   +E  E E E E E E E
||-----------------------|-------------------|
||o----------------------|-------------------|
||-----------------------|-------------------|
||--(4)-4---x-4--------4-|-(4)-4---x-4-----4-|
||o-(2)-2---x-2------0-2-|-(2)-2---x-2---0-2-|
||-----------------------|-------------------|
|
|    H        T S. Q   E   +W
||-----------------------|-------------------|
||o----------------------|-------------------|
||-----------------2-----|-------------------|
||-----------------2---4-|-(4)---------------|
||o-----------2h4------2-|-(2)---------------|
||-----------------------|-------------------|


  B5
                PM                  PM
  +E  E E E E E E E   +E  E E E E E E E
|-------------------|--------------------||
|-------------------|-------------------o||
|-------------------|--------------------||
|-(4)-4---x-4-----4-|-(4)-4---x-4-----4--||
|-(2)-2---x-2---0-2-|-(2)-2---x-2---0-2-o||
|-------------------|--------------------||
|
|                      >
| +W                  +W
|-------------------|--------------------||
|-------------------|-------------------o||
|-------------------|--------------------||
|-(4)---------------|-(4)----------------||
|-(2)---------------|-(2)---------------o||
|-------------------|--------------------||


                        Verse:
  +E  E E E E    E E E   +E  E E E E E E E
|----------------------|-------------------|
|----------------------|-------------------|
|----------------------|-------------------|
|-(4)-4---x-4------x-4-|-(4)-4---x-4---x-4-|
|-(2)-2---x-2------x-2-|-(2)-2---x-2---x-2-|
|----------------------|-------------------|
|
|  H        T S. Q   E   +W
|----------------------|-------------------|
|----------------------|-------------------|
|----------------2-----|-------------------|
|----------------2---4-|-(4)---------------|
|-----------2h4------2-|-(2)---------------|
|----------------------|-------------------|


    B5
    Gtrs I, II
                  PM                  PM
    +E  E E E E E E E   +E  E E E E E E E
||--------------------|-------------------|
||o-------------------|-------------------|
||--------------------|-------------------|
||--(4)-4---x-4---x-4-|-(4)-4---x-4---x-4-|
||o-(2)-2---x-2---0-2-|-(2)-2---x-2---0-2-|
||--------------------|-------------------|


                PM                  PM
  +E  E E E E E E E   +E  E E E E E E E
|-------------------|--------------------||
|-------------------|-------------------o||
|-------------------|--------------------||
|-(4)-4---x-4---x-4-|-(4)-4---x-4---x-4--||
|-(2)-2---x-2---0-2-|-(2)-2---x-2---0-2-o||
|-------------------|--------------------||


    B5
    Gtr I
                   PM                   PM
    +E  E E E E E  E E   +E  E E E E E  E E
||---------------------|--------------------|
||o--------------------|--------------------|
||---------------------|--------------------|
||--(4)-4---x-4----x-4-|-(4)-4---x-4----x-4-|
||o-(2)-2---x-2----0-2-|-(2)-2---x-2----0-2-|
||---------------------|--------------------|
|
|   Gtr II
|    E  E Q   E Q.        E  E Q   E Q.
||------7-----7--------|-----7-----7--------|
||o-----7-----7--------|-----7-----7--------|
||---------------------|--------------------|
||---------------------|--------------------|
||o--------------------|--------------------|
||---------------------|--------------------|


                       1.
                 PM                   PM
  +E  E E E E E  E E   +E  E E E E E  E E
|--------------------|---------------------||
|--------------------|--------------------o||
|--------------------|---------------------||
|-(4)-4---x-4----x-4-|-(4)-4---x-4----x-4--||
|-(2)-2---x-2----0-2-|-(2)-2---x-2----0-2-o||
|--------------------|---------------------||
|
|  E  E Q   E Q.        E  E Q   E Q.
|-----7-----7--------|-----7-----7---------||
|-----7-----7--------|-----7-----7--------o||
|--------------------|---------------------||
|--------------------|---------------------||
|--------------------|--------------------o||
|--------------------|---------------------||


                      Chorus:
  2.
  B5                             A5        E5   B5
  +E  E E E E E  E E   H..       E   +Q.   H    E   +E  E E E E E E E
|--------------------|-------------|-------0------|--------------------|
|--------------------|-----------2-|-(2)---0------|--------------------|
|--------------------|-4---------2-|-(2)---x------|--------------------|
|-(4)-4---x-4----4-4-|-4---------2-|-(2)---2----4-|-(4)-4---x-4---x-4--|
|-(2)-2---x-2----2-0-|-2---------0-|-(0)---2----2-|-(2)-2---x-2---x-2--|
|--------------------|-------------|-------0------|--------------------|
|
|  E  E Q   E Q.       H..       E   +Q.   H    E   +E  E E E E E E E
|-----7-----7--------|-------------|-------0------|--------------------|
|-----7-----7--------|-------------|-------0------|--------------------|
|--------------------|-4---------2-|-(2)---x------|--------------------|
|--------------------|-4---------2-|-(2)---2----4-|-(4)-4---x-4---x-4--|
|--------------------|-2---------0-|-(0)---2----2-|-(2)-2---x-2---x-2--|
|--------------------|-------------|-------0------|--------------------|


  +E  E E E E E E E   H..       E   +Q.   H    E   +E  E E E E E E E
|-------------------|-------------|-------0------|--------------------|
|-------------------|-------------|-------0------|--------------------|
|-------------------|-4---------2-|-(2)---x------|--------------------|
|-(4)-4---x-4---4-4-|-4---------2-|-(2)---2----4-|-(4)-4---x-4---x-4--|
|-(2)-2---x-2---2-0-|-2---------0-|-(0)---2----2-|-(2)-2---x-2---x-2--|
|-------------------|-------------|-------0------|--------------------|


  B5                                        E5
  Gtrs I, II
  +E  E E E E E E E   W          +H..       E   W
|-------------------|----------|--------------|-0----|
|-------------------|----------|--------------|-0----|
|-------------------|-4--------|-(4)----------|-x----|
|-(4)-4---x-4---4-4-|-4--------|-(4)----------|-2----|
|-(2)-2---x-2---2-0-|-2--------|-(2)----------|-2----|
|-------------------|----------|------------0-|-0----|


             A5             E5             B5
  +H..       E   +H..       E   +H.      E E
|-(0)----------|------------0-|-(0)----------|
|-(0)----------|------------0-|-(0)----------|
|-(x)--------2-|-(2)--------x-|-(x)------x-4-|
|-(2)--------2-|-(2)--------2-|-(2)------x-4-|
|-(2)--------0-|-(0)--------2-|-(2)------x-2-|
|-(0)----------|------------0-|-(0)----------|


  B5
  +W           +H.      E E
|------------|--------------|
|------------|--------------|
|-(4)--------|-(4)----------|
|-(4)--------|-(4)------x-4-|
|-(2)--------|-(2)------x-2-|
|------------|--------------|


   Bridge:
    B5
    Gtr I
                   PM                   PM
    +E  E E E E E  E E   +E  E E E E E  E E
||---------------------|--------------------|
||o--------------------|--------------------|
||---------------------|--------------------|
||--(4)-4---x-4----x-4-|-(4)-4---x-4----x-4-|
||o-(2)-2---x-2----0-2-|-(2)-2---x-2----0-2-|
||---------------------|--------------------|
|
|   Gtr II
|    E  E Q   E Q.        E  E Q   E Q.
||------7-----7--------|-----7-----7--------|
||o-----7-----7--------|-----7-----7--------|
||---------------------|--------------------|
||---------------------|--------------------|
||o--------------------|--------------------|
||---------------------|--------------------|


                       1.
                 PM                   PM
  +E  E E E E E  E E   +E  E E E E E  E E  4x
|--------------------|---------------------||
|--------------------|--------------------o||
|--------------------|---------------------||
|-(4)-4---x-4----x-4-|-(4)-4---x-4----x-4--||
|-(2)-2---x-2----0-2-|-(2)-2---x-2----0-2-o||
|--------------------|---------------------||
|
|  E  E Q   E Q.        E  E Q   E Q.      4x
|-----7-----7--------|-----7-----7---------||
|-----7-----7--------|-----7-----7--------o||
|--------------------|---------------------||
|--------------------|---------------------||
|--------------------|--------------------o||
|--------------------|---------------------||


  2.
  B5
  +E  E E E E E E E   E E  E  E E  E E E   E   E E E E E E E
|-------------------|--------------------|-------------------|
|-------------------|--------------------|-------------------|
|-------------------|--------------------|-------------------|
|-(4)-4---x-4---4-4-|-4----4----4----4-4-|-4-----4---4---4-4-|
|-(2)-2---x-2---2-0-|-2----2----2----2-0-|-2-----2---2---2-0-|
|-------------------|--------------------|-------------------|
|
|  E  E Q   E Q   E   E E +Q    Q    Q     H..             E
|-----7-----7-------|---7-(7)---7\-------|-------------------|
|-----7-----7-------|---7-(7)---7\-------|-------------------|
|-----------------7h|=8------------------|-----------------7h|
|-------------------|--------------------|-------------------|
|-------------------|--------------------|-------------------|
|-------------------|--------------------|-------------------|


  E E  E  E E  E E E   E   E E E E E E E
|--------------------|----------------------|
|--------------------|----------------------|
|--------------------|----------------------|
|-4----4----4----4-4-|-4-----4---4---4-4----|
|-2----2----2----2-0-|-2-----2---2---2-0----|
|--------------------|----------------------|
|
| E E +Q    Q    Q     H..             E
|---7-(7)---7\-------|----------------------|
|---7-(7)---7\-------|----------------------|
|-8------------------|-----------------7h===|
|--------------------|----------------------|
|--------------------|----------------------|
|--------------------|----------------------|


  B5
  E E  E  E E  E E E   E   E E E E E E E   E E  E  E E  E E E   Q  Q  Q  Q
|--------------------|-------------------|--------------------|--------------|
|--------------------|-------------------|--------------------|--------------|
|--------------------|-------------------|--------------------|--------------|
|-4----4----4----4-4-|-4-----4---4---4-4-|-4----4----4----4-4-|-4--4--4--4---|
|-2----2----2----2-0-|-2-----2---2---2-0-|-2----2----2----2-0-|-2--2--2--2---|
|--------------------|-------------------|--------------------|--------------|
|
| E E +Q    Q    Q     H..             E   E E +Q    Q    Q     Q  Q  Q  Q
|---7-(7)---7\-------|-------------------|---7-(7)---7\-------|--------------|
|---7-(7)---7\-------|-------------------|---7-(7)---7\-------|--------------|
|-8------------------|-----------------7h|=8------------------|--------------|
|--------------------|-------------------|--------------------|-4--4--4--4---|
|--------------------|-------------------|--------------------|-2--2--2--2---|
|--------------------|-------------------|--------------------|--------------|


 Solo:
  A5        E5             B5
  H.      E E   +H..       E
|-----------0-|-(0)----------|
|-----------0-|-(0)----------|
|-2---------x-|-(x)----------|
|-2---------2-|-(2)--------x-|
|-0-------x-2-|-(2)--------x-|
|---------x-0-|-(0)----------|
|
| H.      E E   +H..       E
|-------------|--------------|
|-5-----------|--------------|
|-6-------x-9-|-(9)----------|
|-7-------x-9-|-(9)--------x-|
|-7-------x-7-|-(7)--------x-|
|-5---------0-|-(0)----------|
|
| Gtr III
| W              W
|-------------|--------------|
|-------------|--------------|
|-------------|--------------|
|-------------|--------------|
|-------------|--------------|
|-------------|--------------|


  E E  E       E   E   E  E  E    E E  E  E   E   E  E E
|------------------------------|--------------------------|
|------------------------------|--------------------------|
|------------------------------|--------------------------|
|-4----4-----------4------4--4-|--4----4------4------4-4--|
|-2----2-----------2------2--0-|--2----2------2------2-0--|
|------------------------------|--------------------------|
|
| E E  E       E   E   E  E  E    E E  E  E   E   E  E E
|------------------------------|--------------------------|
|------------------------------|--------------------------|
|------------------------------|--------------------------|
|-4----4-----------4------4--4-|--4----4------4------4-4--|
|-2----2-----------2------2--0-|--2----2------2------2-0--|
|------------------------------|--------------------------|
|
|              ~~~~
| Q    E      +E   E   E  E  E    Q    E  E  +E   Q.
|------------------------------|--------------------------|
|-----15b17==(15)-15r-15-12----|-12------12-(12)\---------|
|---------------------------14-|------14------------------|
|------------------------------|--------------------------|
|------------------------------|--------------------------|
|------------------------------|--------------------------|

[ Tab from: http://www.guitartabs.cc/tabs/a/ac_dc/its_a_long_way_to_the_top_tab_ver_6.html ]
  A5        E5             B5
  H.      E E   +H..       E   E E  E          E  E     E       E    E
|-----------0-|-(0)----------|--------------------------------------------|
|-----------0-|-(0)----------|--------------------------------------------|
|-2---------x-|-(x)----------|--------------------------------------------|
|-2---------2-|-(2)--------x-|-4----4-------------4-------------4----4----|
|-0-------x-2-|-(2)--------x-|-2----2-------------2-------------2----0----|
|---------x-0-|-(0)----------|--------------------------------------------|
|
| H.      E E   +H..       E   E E  E          E  E     E       E    E
|-------------|--------------|--------------------------------------------|
|-5-----------|--------------|--------------------------------------------|
|-6-------x-9-|-(9)----------|--------------------------------------------|
|-7-------x-9-|-(9)--------x-|-4----4-------------4-------------4----4----|
|-7-------x-7-|-(7)--------x-|-2----2-------------2-------------2----0----|
|-5---------0-|-(0)----------|--------------------------------------------|
|
| W              W             Q    S     +S   E  E     E      +E    S  S
|-------------|--------------|-----------------------------------------14h|
|-------------|--------------|-----17b19r(17)p15-17b19-17b19==(17)r-17----|
|-------------|--------------|--------------------------------------------|
|-------------|--------------|--------------------------------------------|
|-------------|--------------|--------------------------------------------|
|-------------|--------------|--------------------------------------------|


   E     E     E     E     E   E   E E
|--------------------------------------|
|--------------------------------------|
|--------------------------------------|
|--4-----------4-----------4-------4-4-|
|--2-----------2-----------2-------2-0-|
|--------------------------------------|
|
|  E     E     E     E     E   E   E E
|--------------------------------------|
|--------------------------------------|
|--------------------------------------|
|--4-----------4-----------4-------4-4-|
|--2-----------2-----------2-------2-0-|
|--------------------------------------|
|
|  S  S  S  S  S  S  S  S  E  +E   Q
|-17p14----14--------------------------|
|-------17----17-15h17p15--------------|
|-------------------------16-(16)\-----|
|--------------------------------------|
|--------------------------------------|
|--------------------------------------|


  A5        E5             B5
  H.      E E   +H..       E   E E  E  E  E E  E  E
|-----------0-|-(0)----------|----------------------|
|-----------0-|-(0)----------|----------------------|
|-2---------x-|-(x)----------|----------------------|
|-2---------2-|-(2)--------x-|-4----4-----4----4--4-|
|-0-------x-2-|-(2)--------x-|-2----2-----2----2--0-|
|---------x-0-|-(0)----------|----------------------|
|
| H.      E E   +H..       E   E E  E  E  E E  E  E
|-------------|--------------|----------------------|
|-5-----------|--------------|----------------------|
|-6-------x-9-|-(9)----------|----------------------|
|-7-------x-9-|-(9)--------x-|-4----4-----4----4--4-|
|-7-------x-7-|-(7)--------x-|-2----2-----2----2--0-|
|-5---------0-|-(0)----------|----------------------|
|
| W              W             Q    E  E  Q    E  E
|-------------|--------------|----------------------|
|-------------|--------------|-----15-15------15-15-|
|-------------|--------------|-----------16---------|
|-------------|--------------|----------------------|
|-------------|--------------|----------------------|
|-------------|--------------|----------------------|


   E E  E       E  E   E   E  E
|--------------------------------|
|--------------------------------|
|--------------------------------|
|--4----4----------4-------4--4--|
|--2----2----------2-------2--0--|
|--------------------------------|
|
|  E E  E       E  E   E   E  E
|--------------------------------|
|--------------------------------|
|--------------------------------|
|--4----4----------4-------4--4--|
|--2----2----------2-------2--0--|
|--------------------------------|
|
|  Q    E      +Q      E   Q
|---------------------17---------|
|------17b19==(17)---(17)-17r----|
|-16-----------------------------|
|--------------------------------|
|--------------------------------|
|--------------------------------|


  A5                              E5
   H..                             E
|----------------------------------0-|
|----------------------------------0-|
|--2-------------------------------x-|
|--2-------------------------------2-|
|--0-------------------------------2-|
|----------------------------------0-|
|
|  H..                             E
|------------------------------------|
|--5---------------------------------|
|--6-------------------------------9-|
|--7-------------------------------9-|
|--7-------------------------------7-|
|--5-------------------------------0-|
|
|                ~~~~~~
|  S     +S   E  E      +Q.     E  E
|------------------------------17-14-|
|-17b19r(17)p15-17b19==(17)r---------|
|------------------------------------|
|------------------------------------|
|------------------------------------|
|------------------------------------|


                          B5
  +H..                    E    W           +H.      E E
|-(0)-----------------------|-----------|---------------|
|-(0)-----------------------|-----------|---------------|
|-(x)-----------------------|--4--------|--(4)----------|
|-(2)---------------------x-|--4--------|--(4)------x-4-|
|-(2)---------------------x-|--2--------|--(2)------x-2-|
|-(0)-----------------------|-----------|---------------|
|
| +H..                    E    W           +H.      E E
|---------------------------|-----------|---------------|
|---------------------------|-----------|---------------|
|-(9)-----------------------|--4--------|--(4)----------|
|-(9)---------------------x-|--4--------|--(4)------x-4-|
|-(7)---------------------x-|--2--------|--(2)------x-2-|
|-(0)-----------------------|-----------|---------------|
|
|  Q       +Q    +Q    Q       W           +H.      Q
|-17b19===(17)r=(17)\-------|-----------|---------------|
|---------------------------|-----------|---------------|
|---------------------------|-----------|---------------|
|---------------------------|-----------|---------------|
|---------------------------|-14--------|-(14)----------|
|----------------------x\---|-----------|---------------|


 Bridge:
  B5
  +E  E E E E E E E   +E  E E E E E E E
|-------------------|-------------------|
|-------------------|-------------------|
|-------------------|-------------------|
|-(4)-4---x-4---x-4-|-(4)-4---x-4---x-4-|
|-(2)-2---x-2---x-2-|-(2)-2---x-2---x-2-|
|-------------------|-------------------|


  +E  E E E E E E E   +E  E E E E E E E
|-------------------|--------------------|
|-------------------|--------------------|
|-------------------|--------------------|
|-(4)-4---x-4---x-4-|-(4)-4---x-4---x-4--|
|-(2)-2---x-2---x-2-|-(2)-2---x-2---x-2--|
|-------------------|--------------------|


   Verse:
    B5
                  PM                  PM
    +E  E E E E E E E   +E  E E E E E E E
||--------------------|-------------------|
||o-------------------|-------------------|
||--------------------|-------------------|
||--(4)-4---x-4---x-4-|-(4)-4---x-4---x-4-|
||o-(2)-2---x-2---0-2-|-(2)-2---x-2---0-2-|
||--------------------|-------------------|


                PM                  PM
  +E  E E E E E E E   +E  E E E E E E E
|-------------------|--------------------||
|-------------------|-------------------o||
|-------------------|--------------------||
|-(4)-4---x-4---x-4-|-(4)-4---x-4---x-4--||
|-(2)-2---x-2---0-2-|-(2)-2---x-2---0-2-o||
|-------------------|--------------------||


    B5
    Gtr I
                   PM                   PM
    +E  E E E E E  E E   +E  E E E E E  E E
||---------------------|--------------------|
||o--------------------|--------------------|
||---------------------|--------------------|
||--(4)-4---x-4----x-4-|-(4)-4---x-4----x-4-|
||o-(2)-2---x-2----0-2-|-(2)-2---x-2----0-2-|
||---------------------|--------------------|
|
|   Gtr II
|    E  E Q   E Q.        E  E Q   E Q.
||------7-----7--------|-----7-----7--------|
||o-----7-----7--------|-----7-----7--------|
||---------------------|--------------------|
||---------------------|--------------------|
||o--------------------|--------------------|
||---------------------|--------------------|


                      1.
                 PM                   PM
  +E  E E E E E  E E   +E  E E E E E  E E
|--------------------|---------------------||
|--------------------|--------------------o||
|--------------------|---------------------||
|-(4)-4---x-4----x-4-|-(4)-4---x-4----x-4--||
|-(2)-2---x-2----0-2-|-(2)-2---x-2----0-2-o||
|--------------------|---------------------||
|
|  E  E Q   E Q.        E  E Q   E Q.
|-----7-----7--------|-----7-----7---------||
|-----7-----7--------|-----7-----7--------o||
|--------------------|---------------------||
|--------------------|---------------------||
|--------------------|--------------------o||
|--------------------|---------------------||


 Chorus:
  2.
  B5                             A5        E5   B5
  +E  E E E E E  E E   H.      E E   +Q.   H    E   +E  E E E E E E E
|--------------------|-------------|-------0------|--------------------|
|--------------------|-------------|-------0------|--------------------|
|--------------------|-4-------x-2-|-(2)---x------|--------------------|
|-(4)-4---x-4----4-4-|-4-------x-2-|-(2)---2----4-|-(4)-4---x-4---x-4--|
|-(2)-2---x-2----2-0-|-2-------x-0-|-(0)---2----2-|-(2)-2---x-2---x-2--|
|--------------------|-------------|-------0------|--------------------|
|
|  E  E Q   E Q.       H.      E E   +Q.   H    E   +E  E E E E E E E
|-----7-----7--------|-------------|--------------|--------------------|
|-----7-----7--------|-------------|--------------|--------------------|
|--------------------|-4-------x-2-|-(2)---9------|--------------------|
|--------------------|-4-------x-2-|-(2)---9----4-|-(4)-4---x-4---x-4--|
|--------------------|-2-------x-0-|-(0)---7----2-|-(2)-2---x-2---x-2--|
|--------------------|-------------|-------0------|--------------------|


  B5                            A5        E5   B5
  Gtrs I, II
  +E  E E E E E E E   H.      E E   +Q.   H    E   +E  E E E E E E E
|-------------------|-------------|-------0------|--------------------|
|-------------------|-------------|-------0------|--------------------|
|-------------------|-4-------x-2-|-(2)---x------|--------------------|
|-(4)-4---x-4---x-x-|-4-------x-2-|-(2)---2----4-|-(4)-4---x-4---x-4--|
|-(2)-2---x-2---x-x-|-2-------x-0-|-(0)---2----2-|-(2)-2---x-2---x-2--|
|-------------------|-------------|-------0------|--------------------|


  B5                                        E5
  +E  E E E E E E E   W          +H..       E   +W
|-------------------|----------|------------0-|-(0)----|
|-------------------|----------|------------0-|-(0)----|
|-------------------|-4--------|-(4)--------x-|-(x)----|
|-(4)-4---x-4---4-4-|-4--------|-(4)--------2-|-(2)----|
|-(2)-2---x-2---2-0-|-2--------|-(2)--------2-|-(2)----|
|-------------------|----------|------------0-|-(0)----|


             A5             E5             B5
  +H.      E E   +H..       E   +H..       E   +E  E E E E E E E
|-(0)----------|------------0-|-(0)----------|--------------------|
|-(0)----------|------------0-|-(0)----------|--------------------|
|-(x)------x-2-|-(2)--------x-|-(x)----------|--------------------|
|-(2)------x-2-|-(2)--------2-|-(2)--------4-|-(4)-4---x-4---x-4--|
|-(2)------x-0-|-(0)--------2-|-(2)--------2-|-(2)-2---x-2---x-2--|
|-(0)----------|------------0-|-(0)----------|--------------------|


                                     1.,2.
    B5                  A5        E5             B5
    +E  E E E E E E E   H..       E   +H..       E   +E  E E E E E E E  3x
||--------------------|-----------0-|-(0)----------|--------------------||
||o-------------------|-----------0-|-(0)----------|-------------------o||
||--------------------|-2---------x-|-(x)----------|--------------------||
||--(4)-4---x-4---4-4-|-2---------2-|-(2)--------4-|-(4)-4---x-4---x-4--||
||o-(2)-2---x-2---2-0-|-0---------2-|-(2)--------2-|-(2)-2---x-2---x-2-o||
||--------------------|-----------0-|-(0)----------|--------------------||


  3.
  E5        B5
  H..       E   E E E E E E E E   E E E E E E E E
|-0-----------|-----------------|-----------------|
|-0-----------|-----------------|-----------------|
|-x-----------|-----------------|-----------------|
|-2---------x-|-4---4---4---4-4-|-4---4---4---4-4-|
|-2---------x-|-2---2---2---2-0-|-2---2---2---2-0-|
|-0-----------|-----------------|-----------------|


   Outro:
    B5
    Gtr I
    E E E E E E E E   E E E E E E E E   E E E E E E E E   E E E E E E E E
||------------------|-----------------|-----------------|------------------||
||o-----------------|-----------------|-----------------|-----------------o||
||------------------|-----------------|-----------------|------------------||
||--4---4---4---4-4-|-4---4---4---4-4-|-4---4---4---4-4-|-4---4---4---4-4--||
||o-2---2---2---2-0-|-2---2---2---2-0-|-2---2---2---2-0-|-2---2---2---2-0-o||
||------------------|-----------------|-----------------|------------------||
|
|   Gtr II
|   W                 W                 W                 W
||------------------|-----------------|-----------------|------------------||
||o-----------------|-----------------|-----------------|-----------------o||
||--4---------------|-4---------------|-4---------------|-4----------------||
||--4---------------|-4---------------|-4---------------|-4----------------||
||o-2---------------|-2---------------|-2---------------|-2---------------o||
||------------------|-----------------|-----------------|------------------||


    E E E E E E E E   E E E E E E E E   E E E E E E E E   E E E E E E E E  4x
||------------------|-----------------|-----------------|------------------||
||o-----------------|-----------------|-----------------|-----------------o||
||------------------|-----------------|-----------------|------------------||
||--4---4---4---4-4-|-4---4---4---4-4-|-4---4---4---4-4-|-4---4---4---4-4--||
||o-2---2---2---2-0-|-2---2---2---2-0-|-2---2---2---2-0-|-2---2---2---2-0-o||
||------------------|-----------------|-----------------|------------------||
|
|   E E q   Q   E E   E E q   Q   E E   E E q   Q   E E   E E q   Q   E E  4x
||------------------|-----------------|-----------------|------------------||
||o-----------------|-----------------|-----------------|-----------------o||
||------------------|-----------------|-----------------|------------------||
||--4-4-4---4---4-4-|-4-4-4---4---4-4-|-4-4-4---4---4-4-|-4-4-4---4---4-4--||
||o-2-0-2---0---2-0-|-2-0-2---0---2-0-|-2-0-2---0---2-0-|-2-0-2---0---2-0-o||
||------------------|-----------------|-----------------|------------------||


    B5
    Q  Q  E E +E  E   E +E  E E +E  E E +E
||------------------|-----------------------|
||o-----------------|-----------------------|
||------------------|-----------------------|
||--4--4--4-4-(4)-4-|-4-(4)-4-4-(4)-4-4-(4)-|
||o-2--2--0-2-(2)-0-|-2-(2)-0-2-(2)-2-2-(2)-|
||------------------|-----------------------|
|
|   Q  Q  Q    Q      Q     Q    Q    Q
||------------------|-----------------------|
||o-----------------|-----------------------|
||--4--4--4----4----|-4-----4----4----4-----|
||--4--4--4----4----|-4-----4----4----4-----|
||o-2--2--2----2----|-2-----2----2----2-----|
||------------------|-----------------------|


  Q  Q  E E +E  E   E +E  E E +E  E E +E   4x
|-----------------|------------------------||
|-----------------|-----------------------o||
|-----------------|------------------------||
|-4--4--4-4-(4)-4-|-4-(4)-4-4-(4)-4-4-(4)--||
|-2--2--0-2-(2)-0-|-2-(2)-0-2-(2)-2-2-(2)-o||
|-----------------|------------------------||
|
| Q  Q  Q    Q      Q     Q    Q    Q      4x
|-----------------|------------------------||
|-----------------|-----------------------o||
|-4--4--4----4----|-4-----4----4----4------||
|-4--4--4----4----|-4-----4----4----4------||
|-2--2--2----2----|-2-----2----2----2-----o||
|-----------------|------------------------||
Comments