Ac Dc - Inject The Venom Chords & Tabs

 

Inject The Venom Chords & Tabs

Ac Dc Chords & Tabs

Version: 1 Type: Bass Tab 0 ratings
1 star 2 stars 3 stars 4 stars 5 stars
comments

Inject The Venom Bass Tab

Inject the Venom by AC/DC
Standard Tuning

(Intro)
G:-----------------|
D:----5---7---7-5--| x6
A:7---------------7|
E:-----------------|

(Verse)
G:----------------------|
D:----------------------|
A:----------------5--6-7|
E:5(25)--7(25)--7-------|

G:-----------------|
D:----5---7---7-5--| x4
A:7---------------7|
E:-----------------|

G:---------------------------------|
D:----------------------2-3-4------|
A:----------------2(25)-------4-3-2|
E:5(25)-2-2-2-2-2------------------|

(Chorus) inject the venom...
G:------------7-7-7-7-7-6--|
D:--5--7-7-----------------|  x4
A:7--------7--------------7|
E:-------------------------|
[ Tab from: http://www.guitartabs.cc/tabs/a/ac_dc/inject_the_venom_btab.html ]
G:-----------------|
D:----5---7---7-5--| x4
A:7---------------7|
E:-----------------|

G:----------------------------|
D:----------------------------|
A:------5----------------5-6-7|
E:5(25)---7(25)--5--7-7-------|

G:------------7-7-7-7-7-6--|
D:--5--7-7-----------------|  x2
A:7--------7--------------7|
E:-------------------------|

G:--5-6-7---5-7|
D:7-------7----|  x4
A:-------------|
E:-------------|

G:------------7-7-7-7-7-6--|
D:--5--7-7-----------------|  x4
A:7--------7--------------7|
E:-------------------------|

(Outro)
G:7-7-7-7-7-6---|
D:--------------|
A:-------------7|
E:--------------|

Thanks, please rate it after you learn it.
Tabbed by:
_TheBassist01_
Comments