Ac Dc - If You Want Blood Chords & Tabs

 

If You Want Blood Chords & Tabs

Ac Dc Chords & Tabs

Version: 2 Type: Tab 0 ratings
1 star 2 stars 3 stars 4 stars 5 stars
comments

If You Want Blood Tab

##NOTES##
This song is 126 bpm (moderate). The tuning is standard,
and the main chords of the song are A,D7,D,and G.
Notation is h-hammer on, p-pull off, ~-vibrato, b-bend,
x-mute.

e||---------------3--3-2---||
B||-------3---3-x-3--3-3---|| Keep repeating until 1:11
G||--2-xx-2-2-2-x-0--0-2--o||
D||--2-xx-0-2-0-x-0--0-0--o||
A||--0-xx---0--------------||
E||------------------------||

e||--------3--2---||
B||--------3--3---|| Then around 1:37 play a D7
G||--2-----0--2--o|| 6 times
D||--2-----0--0--o||
A||--0------------||
E||---------------||
[ Tab from: http://www.guitartabs.cc/tabs/a/ac_dc/if_you_want_blood_tab_ver_2.html ]
Repeat all of the above, then the solo starts at 2:49
Solo
e||---------5---5~~--5h8p5------------|-------------||
B||-------8---8------------8p5--------|-------------||
G||--7b------------------------7p5----|-----5-5-7-5-||
D||--------------------------------7~~|--7b---------||
A||-----------------------------------|-------------||
E||-----------------------------------|-------------||

e||-------5-------------|----5~~-8-5--8--8b~~-8-5/-||
B||-----5---8p5---------|--8-----------------------||
G||--7b---------7-5-----|--------------------------||
D||-----------------7~~-|--------------------------||
A||---------------------|--------------------------||
E||---------------------|--------------------------||

e||-----8----8--|--17~~-17~~~-17-15-------------||
B||--8b---8b----|-------------------17-15-------||
G||-------------|-------------------------17~/--||
D||-------------|-------------------------------||
A||-------------|-------------------------------||
E||-------------|-------------------------------||

Then repeat the intro and main riff as an outro.
Comments