Ac Dc - Highway To Hell Chords & Tabs

 

Highway To Hell Chords & Tabs

Ac Dc Chords & Tabs

Version: 8 Type: Tab 0 ratings
1 star 2 stars 3 stars 4 stars 5 stars
comments

Highway To Hell Tab

   
Gtr I (E A D G B E) - 'Malcolm Young - Rythm w/dist'
Gtr II (E A D G B E) - 'Angus Young - Rhythm w/dist'
Gtr III (E A D G B E) - 'Angus Young - Lead w/dist'

Intro
  Q=116
 4/4
  Gtr I
  E E E E     H    E E E E   H    E E E E
|---------||---------------|--------------|
|---------||o--------3-3-3-|--------3-3-3-|
|---2-2-2-||---------2-2-0-|--------2-2-0-|
|---2-2-2-||---------0-0-0-|--------0-0-0-|
|---0-0-0-||o--------------|--------------|
|---------||---------2-2-3-|--------2-2-3-|
           |-Rhy Fig 1

  E E E E E E E E   q  Q  E E E E
|-----------------|------------------||
|---3-3-3---3-----|-----------------o||
|---2-2-0---2---2-|-2-------2-2-2----||
|---0-0-0---0---2-|-2-------2-2-2----||
|---------------0-|-0-------0-0-0---o||
|---2-2-3---2-----|------------------||
                       end Rhy Fig 1-|

   Verses
||--
||o-
||-- Rhy Fig 1 x3
||--
||o-
||--

  H    E E E E   H    E E E E   E E E E E E E E
|--------------|--------------|-----------------|
|--------3-3-3-|--------3-3-3-|---3-3-3---3-----|
|--------2-2-0-|--------2-2-0-|---2-2-0---2-----|
|--------0-0-0-|--------0-0-0-|---0-0-0---0-----|
|--------------|--------------|-----------------|
|--------2-2-3-|--------2-2-3-|---2-2-3---2---0-|


                                     Chorus
  Gtrs I, II
     PM------------|
  Q  E E E E E E   E E E E E E E E    Q  Q  Q  E E   +E  E E E Q  Q
|----------------|-----------------||------------2-|-(2)-2-2---3--2---|
|----------------|-----------------||-2--2--2----3-|-(3)-3-3---3--3---|
|----------------|-----------------||-2--2--2--0-2-|-(2)-2-2---0--2---|
|-2--2-2-2-2-2-2-|-2-2-2-2-2-2-2-2-||-2--2--2--0-0-|-(0)-0-0---0--0---|
|-2--2-2-2-2-2-2-|-2-2-2-2-2-2-2-2-||-0--0--0------|------------------|
|-0--0-0-0-0-0-0-|-0-0-0-0-0-0-0-0-||--------------|---------0-3--2---|
                                    |-Rhy Fig 2         end Rhy Fig 2-|


Rhy Fig 2 x2


                1.                                 2.
  Q  Q  Q  E E   +W           +H     +E  E E E       W
|------------2-|-(2)--------|-(2)----(2)--------||--(3)----|
|-2--2--2----3-|-(3)--------|-(3)----(3)-------o||--(2)----|
|-2--2--2--0-2-|-(2)--------|-(2)----(2)-2-2-2--||--(2)----|
|-2--2--2--0-0-|-(0)--------|-(0)----(0)-2-2-2--||--(0)----|
|-0--0--0----0-|-(0)--------|-(0)----(0)-0-0-0-o||--(0)----|
|--------------|------------|-------------------||---------|


                                                       Gtr III
  W                   W             W                     H       Q  E E
|------------------|------------|----------------------|---------------------|
|------------------|------------|----------------------|---------------------|
|------------------|------------|----------------------|-------------7b9==---|
|------------------|------------|----------------------|---------------------|
|------------------|------------|----------------------|---------------------|
|------------------|------------|----------------------|---------------------|
|
| Gtr I
| E E E E +E  E Q    +W             E E E E +E  E   Q    +E  Q  E Q  Q
|-2-2-----------2--|-(2)--------|---2-2-------------2--|----------2--2------|
|-3-3-3-3-(3)-3-3--|-(3)--------|---3-3-3-3-(3)-3---3--|-(3)-3--3-3--3------|
|-2-2-2-0-(0)-0-2--|-(2)--------|---2-2-2-0-(0)-0---2--|-(2)-0--0-2--2------|
|-0---0-0-(0)-0-0--|-(0)--------|---0---0-0-(0)-0---0--|-(0)-0--0-0--0------|
|------------------|------------|----------------------|--------------------|
|-------3-(3)-3----|------------|---------3-(3)-3------|-----3--3-----------|
|
| Gtr II
| Q   E E +E  E Q    +W           A Q   E E +E  S S Q     E  Q  E Q  Q
|-2-------------2--|-(2)--------|---------3-(3)-----2--|--------------------|
|-3-----3-(3)-3-3--|-(3)--------|---3-----3-(3)-----3--|--3--3--3-3--3------|
|-2-----0-(0)-0-2--|-(2)--------|-0h2---2-0-(0)-0h2-2--|--2--0--0-2--2------|
|-0---0-0-(0)-0-0--|-(0)--------|---0---0-0-(0)-0---0--|--0--0--0-0--0------|
|-0---0---------0--|-(0)--------|-------0--------------|--0-----------------|
|-------3-(3)-3----|------------|---------3-(3)--------|-----3--3-----------|


 Guitar Solo
w/Rhy Fig 2 x4
  Gtr III
  +E   E E A    +E   E E A    +E   E    E  A    +E   E E A    +E   E E A      +E
|------5-5-----------5-5-----------5-|-5----------5-5-----------------------|
|------5-5-----------5-5-----------5-|-5----------5-5-------5-5-7pb7.5r(7)--|
|-(7)r-----7b9==(7)r-----7b9==(7)r---|---7b9==(7)r---7b9==(7)r--7pb7.5r(7)--|
|------------------------------------|--------------------------------------|
|------------------------------------|--------------------------------------|
|------------------------------------|--------------------------------------|


  +Q   +E     +E   E E E E   +E    E Q      +E  E A   +E  E
|--------------------------|--------------------------------|
|-(7)--(7)b8==(7)r-5-------|--------------------------------|
|-(7)--(7)b9==(7)r-5---7-5-|-(5)b6-0------------------------|
|--------------------7-----|---------4pb5r==(4)-2-----------|
|--------------------------|----------------------2b4-(2)p0-|
|--------------------------|--------------------------------|


  ~
  Q  E.     +S  E E E +E     Q    A    +E   E E E Q
|---------------5---------|-------------------5------|
|-----------------5-5-----|-------------------5-5-5--|
|-2--4b5.5==(4)-----4r(4)-|--2------------------0-5--|
|-------------------------|-------4b5==(4)r----------|
|-------------------------|-----------------0--------|
|-------------------------|--------------------------|

[ Tab from: http://www.guitartabs.cc/tabs/a/ac_dc/highway_to_hell_tab_ver_8.html ]
              ~                             ~~~~
  +E.    +S   Q  E E S S E    E  E E A  E  +H
|------------------------5-|-----------------------||
|-(5)----------------------|--5------3S10-(10)-----||
|-(5)b6==(5)r--------------|-----5-----------------||
|-------------7--5-0-4s7---|-------7---------------||
|--------------------------|-----------------------||
|--------------------------|-----------------------||


 Chorus
w/Rhy Fig 2 x3
   +Q    Q  H         Q    A A  E      +E   E  E       E  E
|------------------|-----------14pb15r(14)-12---------------|
|-(10)\------------|---------x----------------13b13.5-------|
|------------------|-------x--------------------------14-14-|
|------------------|----------------------------------------|
|------------------|----------------------------------------|
|------------------|----------------------------------------|


   ~~
   H      +Q    Q      E   E  Q    +E         +E    E  E
|-------------------|-----12-12---(12)-------(12)---------|
|-------------------|-----13-13---(13)b13.5==(13)r--------|
|-14-----(14)\------|------------------------------14-11--|
|-------------------|-------------------------------------|
|-------------------|-------------------------------------|
|-------------------|-------------------------------------|


   H            +Q    Q      E   A      +E   +S   +E.    +E      E  E      +E
|-12-----------(12)-------|-------------------------------------15-----------|
|-13b13.5======(13)r------|-----15b17==(15)-(15)r(15)---(15)b17--15pb17r(15--|
|-------------------------|--------------------------------------------------|
|-------------------------|--------------------------------------------------|
|-------------------------|--------------------------------------------------|
|-------------------------|--------------------------------------------------|


             ~~~~
   Q        +Q    +Q     E E   Q.    E Q   Q
|----------------------------|------------------|
|-15pb17===(15)--(15)r\----xs|=x\---------------|
|--------------------------xs|=x\---------------|
|--------------------------xs|=x\------x/--x\---|
|--------------------------xs|=x\------x/--x\---|
|----------------------------|------/2-x/--x\---|
|
|  Q         Q     Q     E E   H       Q   Q
|--------------------------2-|---------3---2----|
|--2---------2-----2-------3-|---------3---3----|
|--2---------2-----2-----0-2-|---------0---2----|
|--2---------2-----2-----0-0-|---------0---0----|
|--0---------0-----0---------|------------------|
|----------------------------|---------3--------|


w/Rhy Fig 2 x2
                                       ~~~~~~~~~
  Q   Q        +Q         a      +E    E    +Q    Q   H
|----12-------(12)-----------------------|------------------|
|----13b13.5r=(13)b13.5--13b14==(13)r----|------------------|
|-------------------------------------14-|-(14)-------------|
|----------------------------------------|------------------|
|----------------------------------------|------------------|
|----------------------------------------|------------------|


                                      ~~~~~~~~~
  Q   Q   +E       +E    A       E    E    +Q     A      +Q     Q   E     +E
|----12-------------------------12------|-----------------------------------|
|----13--(13)b14==(13)r-13b14==(13)r----|--------17b19==(17)r---------------|
|------------------------------------14-|-(14)------------------17b18r(17)--|
|---------------------------------------|-----------------------------------|
|---------------------------------------|-----------------------------------|
|---------------------------------------|-----------------------------------|


   ~~
   Q   q  Q  E  E        +E    E E  E  A         Q     E  E
|---------------------|-------12---12-----------12----------|
|--------------15b17==|=(15)r---------13b13.5==(13)r--------|
|-14--17--------------|-------------------------------14-11-|
|---------------------|-------------------------------------|
|---------------------|-------------------------------------|
|---------------------|-------------------------------------|
|
|  Q   Q  Q  E  E        +E    E E  E            Q     Q
|---------------2-----|--(2)---2-2---------------3-----2----|
|--2---2--2-----3-----|--(3)---3-3---------------3-----3----|
|--2---2--2--0--2-----|--(2)---2-2---------------0-----2----|
|--2---2--2--0--0-----|--(0)---0-0---------------0-----0----|
|--0---0--0-----------|-------------------------------------|
|---------------------|-------------0------------3-----2----|


   ~~
   Q   E.     +S   Q  E  A      +E     +W
|-----------------------------------|---------||
|-----13b14==(13)r------20b22==(20)-|-(20)----||
|-14--------------------------------|---------||
|-----------------------------------|---------||
|-----------------------------------|---------||
|-----------------------------------|---------||
|
|  Q   Q           Q  E          E      W
|--------------------------------2--|---2-----||
|--2---2-----------2-------------3--|---3-----||
|--2---2-----------2--0----------2--|---2-----||
|--2---2-----------2--0----------0--|---0-----||
|--0---0-----------0----------------|---------||
|-----------------------------------|---------||


 Free Time
   +Q    Q   E  Q.      +H.                Q         +W
|---------------------:---------------------------:-------------:
|-(20)r---------------:-------------------17tr20--:-(17tr20)----:
|--------------[0]----:-(0)-----------------------:-------------:
|---------------------:---------------------------:-------------:
|---------------------:---------------------------:-------------:
|---------------------:---------------------------:-------------:
|
|   Q    E E E  E  Q    +Q   T S T E +H              +W
|--------2---2--2-----:---------------------------:-------------:
|--------3---3--3--3--:-(3)--------3-(3)----------:--(3)--------:
|--------2---2--2--0--:-(0)----2------------------:-------------:
|--------0-0-0--0--0--:-(0)--0---0----------------:-------------:
|---------------------:---------------------------:-------------:
|------------------3--:-(3)-----------------------:-------------:


                TP
  W             H.      Q    W            Q  Q  H
|-----------:--------------:------------:------------*|
|-----------:--------------:------------:------------*|
|-----------:-/14-------0--:-0----------:-2----------*|
|-----------:-/14-------2--:-2----------:-2----------*|
|-x\--------:-/12-------0--:-0----------:-0----------*|
|-x\--------:--------------:------------:------------*|
|
| TP
| W             W            Q  H.        Q  Q  H
|-----------:--------------:----2-------:------------*|
|-----------:--------------:----2-------:------------*|
|-2---------:---2----------:-2--2-------:-2----------*|
|-2---------:---2----------:-2--2-------:-2----------*|
|-0---------:---0----------:-0----------:-0----------*|
|-----------:--------------:------------:------------*|
Comments