Ac Dc - Highway To Hell Chords & Tabs

 

Highway To Hell Chords & Tabs

Ac Dc Chords & Tabs

Version: 6 Type: Tab 0 ratings
1 star 2 stars 3 stars 4 stars 5 stars
comments

Highway To Hell Tab

   
Tabbed by:Mike
Email:snake414@yahoo.com

Tuning:EBGDAE

e|---------------------------------------------------------------------------|
B|-----2-2-2--------------------------------2-2------------------------------|
G|-----2-2-2--------------------------------2-2------------------------------|
D|-----2-2-2----5-5-5---5-5-5---5-5-5---5---2-2------------------------------|
A|-----0-0-0----5-5-5---5-5-5---5-5-5---5---0-0------------------------------|
E|--------------2-2-3---2-2-3---2-2-3---2------------------------------------|
play 5 X's then go in to next

e|---------------------------------------------------------------------------|
B|-----2-2-2-----------------------------------------------------------------|
G|-----2-2-2-----------------------------------------------------------------|
D|-----2-2-2----5-5-5---5-5-5---5-5-5---5--5---------------------------------|
A|-----0-0-0----5-5-5---5-5-5---5-5-5---5--5-2-2-2-2-2-2-2-2-2-2-2-2-2-2-2-2-|
E|--------------2-2-3---2-2-3---2-2-3---2--2-0-0-0-0-0-0-0-0-0-0-0-0-0-0-0-0-|


e|---------------------------------------------------------------------------|
B|---------------------------------------------------------------------------|
G|---------7-7-7-7----------------7-7-7-7---------------7-7-7-7--------------|
D|-7--7-7--7-7-7-7--5-4---7--7-7--7-7-7-7--5-4--7--7-7--7-7-7-7--5-4---------|
A|-7--7-7--5-5-5-5--5-4---7--7-7--5-5-5-5--5-4--7--7-7--5-5-5-5--5-4---------|
E|-5--5-5-----------3-2---5--5-5-----------3-2--5--5-5-----------3-2---------|

e|-------------|
B|-------------|
G|---------7---|
D|-7--7-7--7---|
A|-7--7-7--5---|
E|-5--5-5------|

e|---------------------------------------------------------------------------|
B|-----2-2-2--------------------------------2-2------------------------------|
G|-----2-2-2--------------------------------2-2------------------------------|
D|-----2-2-2----5-5-5---5-5-5---5-5-5---5---2-2------------------------------|
A|-----0-0-0----5-5-5---5-5-5---5-5-5---5---0-0------------------------------|
E|--------------2-2-3---2-2-3---2-2-3---2------------------------------------|
play 3 X's then go to next

e|---------------------------------------------------------------------------|
B|---------------------------------------------------------------------------|
G|---------7-7-7-7----------------7-7-7-7---------------7-7-7-7--------------|
D|-7--7-7--7-7-7-7--5-4---7--7-7--7-7-7-7--5-4--7--7-7--7-7-7-7--5-4---------|
A|-7--7-7--5-5-5-5--5-4---7--7-7--5-5-5-5--5-4--7--7-7--5-5-5-5--5-4---------|
E|-5--5-5-----------3-2---5--5-5-----------3-2--5--5-5-----------3-2---------|

B|-------------|
G|---------7---|
D|-7--7-7--7---|
A|-7--7-7--5---|
E|-5--5-5------|
[ Tab from: http://www.guitartabs.cc/tabs/a/ac_dc/highway_to_hell_tab_ver_6.html ]
e|---------------------------------------------------------------------------|
B|---------7-7-7--------------7-7-7-------7-7-7------------------------------|
G|---7-7-7-7-7-7-7------7-7-7-7-7-7-7-7-7-7-7-7---7---7----------------------|
D|---7-7-7-5-5-5-7------7-7-7-5-5-5-7-7-7-5-5-5---7---7----------------------|
A|---5-5-5-------5------5-5-5-------5-5-5---------5---5----------------------|
E|---------------------------------------------------------------------------|

Then the solo...this is all i know of it sorry
e|---------------------------------------------------------------------------|
B|--5-5-5----5-5-5-----5-5-5----5-5-5-----5-5-5------------------------------|
G|--------8b-------8b--------8b--------8b-------8b---5---5-7-5-7-5b----------|
D|----------------------------------------------------------------------7--5-|
A|---------------------------------------------------------------------------|
E|---------------------------------------------------------------------------|

then next verse
e|---------------------------------------------------------------------------|
B|---------------------------------------------------------------------------|
G|---------7-7-7-7----------------7-7-7-7---------------7-7-7-7--------------|
D|-7--7-7--7-7-7-7--5-4---7--7-7--7-7-7-7--5-4--7--7-7--7-7-7-7--5-4---------|
A|-7--7-7--5-5-5-5--5-4---7--7-7--5-5-5-5--5-4--7--7-7--5-5-5-5--5-4---------|
E|-5--5-5-----------3-2---5--5-5-----------3-2--5--5-5-----------3-2---------|

e|---------------------------------------------------------------------------|
B|---------------------------------------------------------------------------|
G|---------7-----------------------------------------------------------------|
D|-7--7-7--7-----5-4---------------------------------------------------------|
A|-7--7-7--5-----5-4---------------------------------------------------------|
E|-5--5-5--------3-2---------------------------------------------------------|

e|---------------------------------------------------------------------------|
B|---------------------------------------------------------------------------|
G|---------7-7-7-7----------------7-7-7-7---------------7-7-7-7--------------|
D|-7--7-7--7-7-7-7--5-4---7--7-7--7-7-7-7--5-4--7--7-7--7-7-7-7--5-4---------|
A|-7--7-7--5-5-5-5--5-4---7--7-7--5-5-5-5--5-4--7--7-7--5-5-5-5--5-4---------|
E|-5--5-5-----------3-2---5--5-5-----------3-2--5--5-5-----------3-2---------|

e|-------------|
B|-------------|
G|---------7---|
D|-7--7-7--7---|
A|-7--7-7--5---|
E|-5--5-5------|

let last one ring

| b  bend
| /  slide up
| \  slide down
| h  hammer-on
| p  pull-off
| ~  vibrato
| +  harmonic
| x  Mute note

===============================================================================
Comments