Ac Dc - Highway To Hell Chords & Tabs

 

Highway To Hell Chords & Tabs

Ac Dc Chords & Tabs

Version: 5 Type: Tab 0 ratings
1 star 2 stars 3 stars 4 stars 5 stars
comments

Highway To Hell Tab

Intro
e|-----------------------------------------------------------------------------|
B|------------3-3-3--3-3-3---3-3-3---3-----------------------------------------|
G|----2-2-2---2-2-2--2-2-2---2-2-2---2--2-2------------------------------------|
D|----2-2-2---0-0-0--0-0-0---0-0-0---0--2-2------------------------------------|
A|----0-0-0---x-x-x--x-x-x---x-x-x---x--0-0------------------------------------|
E|-------------2-2-3--2-2-3--2-2-3---2-----------------------------------------|
Just repeat this for the verse
[ Tab from: http://www.guitartabs.cc/tabs/a/ac_dc/highway_to_hell_tab_ver_5.html ]
Chorus
e|-----------------2--2--2------3--2-------------------------------------------|
B|--2--2--2-------2--2--2-------3--3-------------------------------------------|
G|--2--2--2--0----2--2--2-------0--2-------------------------------------------|
D|--2--2--2--2----0--0--0-------0--0-------------------------------------------|
A|--0--0--0---------------------x--x-------------------------------------------|
E|------------------------------3--2-------------------------------------------|
 Just do that everytime they sing "Im on a Highway To Hell"
Solo- u figure out the timing
e|-----5-5-----5--5-----5--5-----5---5-----------------------------------------|
B|-----5-5-----5--5-----5--5-----5---5-----------5-----------------------------|
G|--7------7---------7---------7--------7---------5------7-4-----0-------------|
D|----------------------------------------7------------7---------------4--2----|
A|--------------------------------------------------------------------------2/0|
E|-----------------------------------------------------------------------------|

e|--------------5----------------------------------5---------------------------|
B|-----------------5---5--------------------------5-------------------5--3/10--|
G|---2----4------------4-----4--2--------------------------------------------5-|
D|--------------------------------------4----------------7----5--0---4/6------7|
A|-------------------------------------------0---------------------------------|
E|-----------------------------------------------------------------------------|
Comments