Ac Dc - Highway To Hell Chords & Tabs

 

Highway To Hell Chords & Tabs

Ac Dc Chords & Tabs

Version: 2 Type: Tab 2 ratings
1 star 2 stars 3 stars 4 stars 5 stars
comments

Highway To Hell Tab

   
This is my first tab so please go easy on it i'm new at this 
(This song tabed by Guym {Look it up on MySpace})

(if there are any corrections or veriations e-mail me at babybooboobear@hotmail.com)

Tuning (basic)- e-B-G-D-A-e

This Song Is all in the G-major Scale at least the real version by Angus cuz
All the songs by AC/DC are writen in the G-Major Scale and it's component Scales said Angus Young

Intro verse (x5)

e|--------------|------------|--------------------------------|
B|--------------|------------|--------------------------------|
G|--------------|---5--5--5--|---5--5--5---5--5--5---5---7-7--|
D|---7---7---7--|---5--5--5--|---5--5--5---5--5--5---5---7-7--|
A|---7---7---7--|---2--2--3--|---2--2--3---2--2--3---2---5-5--|
E|---5---5---5--|------------|--------------------------------|


Pre Chorus (x1)

e|------------|------------|-----------------------------|
B|------------|------------|-----------------------------|
G|------------|---5--5--5--|---5--5--5---5--5--5--5------|
D|---7--7--7--|---5--5--5--|---5--5--5---5--5--5--5---2--|
A|---7--7--7--|---2--2--3--|---2--2--3---2--2--3--2---2--|
E|---5--5--5--|------------|--------------------------0--|

e|-----------------------------------------------|
B|-----------------------------------------------|
G|-----------------------------------------------|
D|---2--2--2--2--2--2--2--2--2--2--2----2--2--2--|
A|---2--2--2--2--2--2--2--2--2--2--2----2--2--2--|
E|---0--0--0--0--0--0--0--0--0--0--0----0--0--0--|
Play Heavier and louder as you go

Chorus (x3)

e|-------------------------------|
B|-------------------------------|
G|-----------------7-----12--12--|
D|---7----7----7---7-----12--12--|
A|---7----7----7---5-----10--10--|
E|---5----5----5-----------------|

(End With) (x1)

e|-------------|
B|------8------|
G|------7---7--|
D|------5---7--|
A|---5--5---5--|
E|-------------|

Verse (x3)

e|--------------|------------|--------------------------------|
B|--------------|------------|--------------------------------|
G|--------------|---5--5--5--|---5--5--5---5--5--5---5---7-7--|
D|---7---7---7--|---5--5--5--|---5--5--5---5--5--5---5---7-7--|
A|---7---7---7--|---2--2--3--|---2--2--3---2--2--3---2---5-5--|
E|---5---5---5--|------------|--------------------------------|

[ Tab from: http://www.guitartabs.cc/tabs/a/ac_dc/highway_to_hell_tab_ver_2.html ]
Pre Chorus (x1)

e|------------|------------|-----------------------------|
B|------------|------------|-----------------------------|
G|------------|---5--5--5--|---5--5--5---5--5--5--5------|
D|---7--7--7--|---5--5--5--|---5--5--5---5--5--5--5---2--|
A|---7--7--7--|---2--2--3--|---2--2--3---2--2--3--2---2--|
E|---5--5--5--|------------|--------------------------0--|

e|-----------------------------------------------|
B|-----------------------------------------------|
G|-----------------------------------------------|
D|---2--2--2--2--2--2--2--2--2--2--2----2--2--2--|
A|---2--2--2--2--2--2--2--2--2--2--2----2--2--2--|
E|---0--0--0--0--0--0--0--0--0--0--0----0--0--0--|

Chorus (x3)

e|-------------------------------|
B|-------------------------------|
G|-----------------7-----12--12--|
D|---7----7----7---7-----12--12--|
A|---7----7----7---5-----10--10--|
E|---5----5----5-----------------|

(End With) (x1)

e|-------------|
B|------8------|
G|------7---7--|
D|------5---7--|
A|---5--5---5--|
E|-------------|

Pre Solo (x1)

e|----------------------------------------------------------------------------------|
B|---7--7--7----8--8--8--7---8--8--8--7----7--7--7----8--8--8--7---8--8--8--7---7--7|
G|---7--7--7----7--7--7--7---7--7--7--7----7--7--7----7--7--7--7---7--7--7--7---7--7|
D|---5--5--5----5--5--5--5---5--5--5--5----5--5--5----5--5--5--5---5--5--5--5---5--7|
A|---5--5--5----5--5--5--5---5--5--5--5----5--5--5----5--5--5--5---5--5--5--5---5--5|
E|----------------------------------------------------------------------------------|

Don't Know The solo (Sorry)

(Play Solo Here)

Chorus (x3)

e|-------------------------------|
B|-------------------------------|
G|-----------------7-----12--12--|
D|---7----7----7---7-----12--12--|
A|---7----7----7---5-----10--10--|
E|---5----5----5-----------------|

(End With) (x1)

e|-------------|
B|------8------|
G|------7---7--|
D|------5---7--|
A|---5--5---5--|
E|-------------|

Chorus {agian} (x3)

e|-------------------------------|
B|-------------------------------|
G|-----------------7-----12--12--|
D|---7----7----7---7-----12--12--|
A|---7----7----7---5-----10--10--|
E|---5----5----5-----------------|

(End With) (x1)

e|-------------|
B|------8------|
G|------7---7--|
D|------5---7--|
A|---5--5---5--|
E|-------------|

And End With A Tremolo 
Comments