Ac Dc - Highway To Hell Chords & Tabs

 

Highway To Hell Chords & Tabs

Ac Dc Chords & Tabs

Version: 4 Type: Bass Tab 0 ratings
1 star 2 stars 3 stars 4 stars 5 stars
comments

Highway To Hell Bass Tab

HIGHWAY TO HELL
AC/DC

-BASS
-STANDARD TUNING
-EADG

PLEASE NOTE: THIS MIGHT A LITTLE DIFFERENT BECAUSE THIS WAS TABBED FROM AC/DC LIVE
CD NOT THE ORIGINAL ALBUM, BUT THIS IS STILL GOOD.

VERSE
G--------------|-------|-------|
D-GUITAR ONLY--|-------|-------|
A--ON VERSES---|-------|-------|
E--------------|-------|-------|

PRE-CHORUS
G---------------------|
D---------------------|
A---------------------|
E-0--0-0-0-0-0-0-0000-|
 (INCREASES IN SPEED)

CHORUS
G-----------------------|  |--------------------|
D-------------------5---|  |--------------------|
A---------------5-7---5-|  |---------------5----|
E-5-5-5-5-5-5-5---------|X3|-5-5-5-5-5-5-5------|

VERSE
G--------------|--------|-------|
D--------------|--------|-------|
A--------------|--------|-------|
E--------------|--------|-------|

PRE-CHORUS
G-------------------|
D-------------------|
A-------------------|
E-0--0-0-0-0-0-0000-|
[ Tab from: http://www.guitartabs.cc/tabs/a/ac_dc/highway_to_hell_btab_ver_4.html ]
CHORUS
G-----------------------|  |---------------------|
D-------------------5---|  |---------------------|
A---------------5-7---5-|  |-----------------5---|
E-5-5-5-5-5-5-5---------|X3|-5-5-5-5-5-5-5-5-----|

PRE-SOLO
G---------------------------------|
D-----5--------5------------------|
A-7-7---7--7-7---7--3-3-5-5-7-7-7-|
E---------------------------------|

SOLO
G-----------------------|  |-----------------------------|
D-------------------5---|  |-----------------------------|
A---------------5-7---5-|  |-------------3-3-5-5-7-7-7-7-|
E-5-5-5-5-5-5-5---------|X3|-5-5-5-5-5-5-----------------|

CHORUS/OUTRO
G-----------------------|  |------------------------|
D-------------------5---|  |--------------------5---|
A---------------5-7---5-|  |---------------5------5-|
E-5-5-5-5-5-5-5---------|X3|-5-5-5-5-5-5-5----------|

G-----------------------|  |--------------------|
D-------------------5---|  |--------------------|
A---------------5-7---5-|  |---------------5----|
E-5-5-5-5-5-5-5---------|X3|-5-5-5-5-5-5-5------|


PLEASE RATE
THANKS.
Comments