Ac Dc - Highway To Hell Chords & Tabs

 

Highway To Hell Chords & Tabs

Ac Dc Chords & Tabs

Version: 3 Type: Bass Tab 0 ratings
1 star 2 stars 3 stars 4 stars 5 stars
comments

Highway To Hell Bass Tab

Intro/Verse(5x)
|--------------------|
|--------------------|
|000--------------00-|
|----223-223-223-2---|
(1x)
|-------------------|
|-------------------|
|000--------------0-|
|----223-223-223-2--|

Pre-Chorus
|--------------------------------|
|--------------------------------|
|--------------------------------|
|0-0-0-0-0-0-0-0-0-0-0-0-0-0-0-0-|

Chorus(3x)
|----------------|
|0-0-0-0---------|
|--------0-0-----|
|------------3-2-|
(1x)
|------------|
|0-0-0-0-----|
|--------0---|
|----------0-|

Verse(3x)
|--------------------|
|--------------------|
|000--------------00-|
|----223-223-223-2---|
(1x)
|-------------------|
|-------------------|
|000--------------0-|
|----223-223-223-2--|
[ Tab from: http://www.guitartabs.cc/tabs/a/ac_dc/highway_to_hell_btab_ver_3.html ]
Pre-Chorus
|--------------------------------|
|--------------------------------|
|--------------------------------|
|0-0-0-0-0-0-0-0-0-0-0-0-0-0-0-0-|

Chorus(3x)
|----------------|
|0-0-0-0---------|
|--------0-0-----|
|------------3-2-|
(1x)
|------------|
|0-0-0-0-----|
|--------0---|
|----------0-|

Pre-Solo
|------------------|
|------------------|
|------------------|
|0-0-0-0-0-0-0-0-0-|

Solo(4x)
|----------------|
|0-0-0-0---------|
|--------0-0-----|
|------------3-2-|

Chorus(3x)
|----------------|
|0-0-0-0---------|
|--------0-0-----|
|------------3-2-|
(1x)
|------------|
|0-0-0-0-----|
|--------0---|
|----------0-|
(3x)
|----------------|
|0-0-0-0---------|
|--------0-0-----|
|------------3-2-|
(1x)
|------------|
|0-0-0-0-----|
|--------0---|
|----------0-|
Comments