Ac Dc - Hells Bells Chords & Tabs

 

Hells Bells Chords & Tabs

Ac Dc Chords & Tabs

Version: 4 Type: Tab 2 ratings
1 star 2 stars 3 stars 4 stars 5 stars
comments

Hells Bells Tab

INTRO AND CHORUS:

E----0---------------------------------0--------------------------------
B---------3--------1--------3---------------3-------1-------------------
G------2-----2--------2--------2---------2-----2----------7--5----------
D---------------------------------------------------------7--5--2-------
A--0------------0--------0--------0-0------------0--------5--3--0-------
E-----------------------------------------------------------------------

(REPEAT FIVE TIMES)
[ Tab from: http://www.guitartabs.cc/tabs/a/ac_dc/hells_bells_tab_ver_4.html ]
E----0---------------------------------0--------------------------------
B---------3--------1--------3---------------3---------------------------
G------2-----2--------2--------2---------2-----2------5--8--7-5---------
D-----------------------------------------------------5--8--7-5--2------
A--0------------0--------0--------0-0------------0----3--6--5-3--0------
E-----------------------------------------------------------------------

VERSE:

E---------------------------------------------
B---------------------------------------------
G-----9---7---9----7---5---7--------5-4-------
D-----9---7---9----7---5---7--------5-4-------
A-----7---7---7----5---5---5--------3-2-------
E---------------------------------------------

Working on the solo.  Might finish, might not.
Comments