Ac Dc - Hells Bells Chords & Tabs

 

Hells Bells Chords & Tabs

Ac Dc Chords & Tabs

Version: 1 Type: Tab 20 ratings
1 star 2 stars 3 stars 4 stars 5 stars
comments

Hells Bells Tab

Artist: AC/DC
Song: Hells Bells 
Tabbed by: John Leadman



  Intro (and Chorus)
E|-------------------------|------------------------|------------------------|
B|-------------------------|------------------------|------------------------|
G|-----9-----7----------5--|----------7-------------|----9-----7----------5--|
D|--------7-------7--------|----5----------7--------|-------7-------7--------|
A|--0----------------0-----|-------0----------0--0--|------------------0-----|
E|-------------------------|------------------------|------------------------|

|------------------------|------------------------|
|------------------------|------------------------|
|----9-----7----------5--|----------7----------2--|
|-------7-------7--------|----5-----7----5--5--2--|
|------------------0-----|-------0-------3--2--0--|
|------------------------|------------------------|

last part of intro
|------------------------|------------------------|
|------------------------|------------------------|
|----9-----7----------5--|----------7-------------|
|-------7-------7--------|----5----------7--------|
|------------------0-----|-------0----------0--0--|
|------------------------|------------------------|

|---------------------3--|----3--2---------------|
|---------------------3--|----3--3---------------|
|----9-----7----------0--|----0--2---------------|
|-------7-------7-----0--|----0--0----5--5--2----|
|------------------0--2--|----2--0----3--2--0----|
|---------------------3--|----3------------------|
[ Tab from: http://www.guitartabs.cc/tabs/a/ac_dc/hells_bells_tab.html ]
Verse
|------------------------|---------------------|
|------------------------|---------------------|
|----9--7--9----7--5--7--|---------------------|
|----7--7--7----5--5--7--|-----------5----5----|
|------------------------|--------0--3----2----|
|------------------------|---------------------|

|-------------------------|---------------------|
|-------------------------|---------------------|
|-----9--7--9----7--5--7--|---------------------|
|-----7--7--7----5--5--7--|-----------5----5----|
|--0----------------------|--------0--3----2----|
|-------------------------|---------------------|


 I won't take no prisoner...
|-------------------------|------------------3----|-------------------------|
|-----3--3--3----3--3--3--|----3--3----------3----|-----3--3--3----3--3--3--|
|-----2--0--2----2--0--2--|----2--2-----5----4----|-----2--0--2----2--0--2--|
|--0----------------------|----------2--5----5----|--0----------------------|
|-------------------------|----------0--3----5----|-------------------------|
|-------------------------|------------------3----|-------------------------|

|------------------3----|------------------------|-----------------------|
|----3--3----------3----|------------------------|-----------------------|
|----2--2-----5----4----|------------------------|-------------7---------|
|----------2--5----5----|----9--7--9----9--7--9--|----9--9--9--7----7----|
|----------0--3----5----|----7--7--7----7--7--7--|----7--7--7--5----7----|
|------------------3----|------------------------|------------------5----|

|------------------------|-------------3----3----|
|------------------------|-------------3----3----|
|------------------------|-------------4----4----|
|----9--7--9----9--7--9--|----9--9--9--5----5----|
|----7--7--7----7--7--7--|----7--7--7--5----5----|
|------------------------|-------------3----3----|


Comments