Ac Dc - Hells Bells For Solo Guitar Chords & Tabs

 

Hells Bells For Solo Guitar Chords & Tabs

Ac Dc Chords & Tabs

Version: 1 Type: Tab 10 ratings
1 star 2 stars 3 stars 4 stars 5 stars
comments

Hells Bells For Solo Guitar Tab

   
Hell’s Bells


This is a good way to play it if you only have one guitar in the band.  Some of
parts are thickened up a bit.  If there are any questions or additions meibukan76@msn.com


Intro Fill [repeat 5 times]
 
E---0---------------------------0-------------------------------------|
B---------------------------------------------------------------------|
G--------7------5------7-------------7------5------7------------------|
D---------7------5------7-------------7------5------------5-----2-----|
A-0---0-----0------0------0--0----0-----0------0----------3/2---0-----|
E---------------------------------------------------------------------|

[6th time] 
[ Tab from: http://www.guitartabs.cc/tabs/a/ac_dc/hells_bells_for_solo_guitar_tab.html ]
E---0---------------------------0-------------------------------------|
B---------------------------------------------------------------------|
G--------7------5------7-------------7--------------------------------|
D---------7------5------7-------------7-------------7-----5-----2-----|
A-0---0-----0------0------0--0----0-----0----5-5-5--5-----3/2---0-----|
E--------------------------------------------3-3-3--------------------|

Verse Fill [repeat 5 times]

E------------------------------------|
B------------------------------------|
G---9/7/9----7/5/7-------------------|
D---7/5/7----7/5/7-------5-----2-----|
A---------------------0--3/2---0-----|
E------------------------------------|

[6th time]

E-----------------------------
B-----------------------------
G---9/7/9----7/5/7------------ 	D5             C5 G5    D5           C5  G5
D---7/5/7----7/5/7-------5----  
A---------------------0--3/2--  (listen to song for strumming pattern)
E-----------------------------



E5        D5  A5     E5              G5

[REPEAT ALL]

SOLO

[REPEAT ALL]


Comments