Ac Dc - Hells Bells Chords & Tabs

 

Hells Bells Chords & Tabs

Ac Dc Chords & Tabs

Version: 2 Type: Bass Tab 0 ratings
1 star 2 stars 3 stars 4 stars 5 stars
comments

Hells Bells Bass Tab

Artist: AC/DC
Title: Hells Bells Bass Tab
Album : Back in Black

Intro (play nothing until 10 bars then...)
G|----------------|----------------|
D|----------------|----------------|
A|----------------|-------------3-2|
E|----------------|----------------|

G|----------------|----------------|
D|----------------|----------------|
A|-0--------------|----------------|
E|----------------|----------------|


G|----------------|----------------|
D|----------------|----------------|
A|-0--------------|-------------3-2|
E|----------------|----------------|

G|----------------|----------------|
D|----------------|----------------|
A|-0---0-0-0-0-0-0|-0-0-0-0-0-0-0-0|
E|----------------|----------------|

G|----------------|----------------|
D|----------------|----------------|
A|-0-0-0-0-0-0-0-0|-0-0-0-0-0-0-3-2|
E|----------------|----------------|

G|----------------|----------------|
D|----------------|----------------|
A|-0---0-0-0-0-0-0|-0-0-0-0-0-0-0-0|
E|----------------|----------------|

G|----------------|----------------|
D|----------------|-5--------------|
A|-0-0-0-0-0-0-0-0|-------5-----3-2|
E|----------------|----------------|

G|----------------|----------------|
D|----------------|----------------|
A|-0---0-0-0-0-0-0|-5-5-5-5-3--2---|
E|----------------|----------------|

G|----------------|----------------|
D|----------------|----------------|
A|-0-0-0-0-0-0-0-0|-5-5-5-5-3--2---|
E|----------------|----------------|

Verse 1					x4
G| ----------------|---------------- |
D|*----------------|----------------*|
A|*-0-0-0-0-0-0-0-0|-5-5-5-5-3--2---*|
E| ----------------|---------------- |

Pre-chorus					x2
G| ----------------|---------------- |
D|*----------------|----------------*|
A|*-5-5-5-5-5-5-5-5|-5-5-5-5-3------*|
E| ----------------|-------------3-- |

G|----------------|----------------|
D|----------------|----------------|
A|-7-7-7-7-7-7-7-7|-7-7-7-7-5------|
E|----------------|-------------5--|

G|----------------|----------------|
D|----------------|----------------|
A|----------------|---------5------|
E|-0-0-0-0-0-0-0-0|-0-0-0-0-----5--|

Chorus
G|----------------|-----|----------------|
D|----------------|-?//-|----------------|
A|-0-0-0-0-0-0-0-0|-//?-|-0-0-0-0-0-0-3-2|
E|----------------|-----|----------------|

G|----------------|----------------|
D|----------------|----------------|
A|-0---0-0-0-0-0-0|-0-0-0-0-0-0-0-0|
E|----------------|----------------|

G|----------------|----------------|
D|----------------|-5--------------|
A|-0-0-0-0-0-0-0-0|-------5-----3-2|
E|----------------|----------------|
[ Tab from: http://www.guitartabs.cc/tabs/a/ac_dc/hells_bells_btab_ver_2.html ]
G|----------------|----------------|
D|----------------|----------------|
A|-0---0-0-0-0-0-0|-5-5-5-5-3--2---|
E|----------------|----------------|

G|----------------|----------------|
D|----------------|----------------|
A|-0-0-0-0-0-0-0-0|-5-5-5-5-3--2---|
E|----------------|----------------|

Verse 2

Pre-chorus

Chorus

Then
G|----------------|----------------|
D|----------------|----------------|
A|-0---0-0-0-0-0-0|-0-0-0-0-0-0-0-0|
E|----------------|----------------|

G|----------------|----------------|
D|----------------|----------------|
A|-0-0-0-0-0-0-0-0|-0-0-0-0-0---0--|
E|----------------|---------------3|

Bridge					x4
G| ----------------|---------------- |
D|*----------------|----------------*|
A|*-0------3-------|-5-----------0--*|
E| ----------------|---------------3 |

Guitar Solo					x2
G| ----------------|---------------- |
D|*----------------|----------------*|
A|*-5-5-3-5-5-5-3-5|-5-5-5-5-3------*|
E| ----------------|-------------3-- |

G|----------------|----------------|
D|----------------|----------------|
A|-7-7-5-7-7-7-5-7|-7-7-7-7-5------|
E|----------------|-------------5--|

G|----------------|----------------|
D|----------------|---------5------|
A|----------------|-------------5--|
E|-0-0-0-0-0-0-0-0|-0-0-0-0--------|

Chorus
G|----------------|-----|----------------|
D|----------------|-?//-|----------------|
A|-0-0-0-0-0-0-0-0|-//?-|-0-0-0-0-0-0-3-2|
E|----------------|-----|----------------|

G|----------------|----------------|
D|----------------|----------------|
A|-0---0-0-0-0-0-0|-0-0-0-0-0-0-0-0|
E|----------------|----------------|

G|----------------|----------------|
D|----------------|----------------|
A|-0-0-0-0-0-0-0-0|-3-----5-----3-2|
E|----------------|----------------|

G|----------------|-----------------|
D|----------------|-----------------|
A|-0---0-0-0-0-0-0|-0-0-0-0-0-5-7-10|
E|----------------|-----------------|

G|----------------|----------------|
D|----------------|----------------|
A|-0-0-0-0-0-0-0-0|-3-----5-----3-2|
E|----------------|----------------|

G|----------------|----------------|
D|----------------|----------------|
A|-0---0-0-0-0-0-0|-0-0-0-0-0-0-0-0|
E|----------------|----------------|

G|----------------|----------------|
D|----------------|----------------|
A|-0-0-0-0-0-0-0-0|-3-----5-----0--|
E|----------------|---------------3|

End						x4
G| ----------------|---------------- |
D|*----------------|----------------*|
A|*-0------3-------|-5-----------0--*|
E| ----------------|---------------3 |

G|--- |
D|----|
A|-0--|
E|----|

SYLVAIN : France Basse-Normandie Calvados Caen
Questions, corrections and comments : TMWF@caramail.com
Comments