Ac Dc - Hell Aint A Bad Place To Be Chords & Tabs

 

Hell Aint A Bad Place To Be Chords & Tabs

Ac Dc Chords & Tabs

Version: 6 Type: Tab 0 ratings
1 star 2 stars 3 stars 4 stars 5 stars
comments

Hell Aint A Bad Place To Be Tab

   
Tuning: Standard

e---3---2---3---2---3-2-------------------|
B---3---3---3---3---3-3-------------------|
G---0---2---0---2---0-2---2---------------|
D---0---0---0---0---0-0---2---------------|
A---x---x---x---x---x-x---0---------------|
E---3---2---3---2---3-2-------------------|


e---3---2---3---2---3-2-------------------|
B---3---3---3---3---3-3-------------------|
G---0---2---0---2---0-2---2---------------|
D---0---0---0---0---0-0---2---------------|
A---x---x---x---x---x-x---0---------------|
E---3---2---3---2---3-2-------------------|


e---3---2---3---2---3-2-------------------|
B---3---3---3---3---3-3-------------------|
G---0---2---0---2---0-2---2---------------|
D---0---0---0---0---0-0---2---------------|
A---x---x---x---x---x-x---0---------------|
E---3---2---3---2---3-2-------------------|


e---3---2---3---2---3-2-------------------|
B---3---3---3---3---3-3-------------------|
G---0---2---0---2---0-2---2---------------|
D---0---0---0---0---0-0---2---------------|
A---x---x---x---x---x-x---0---------------|
E---3---2---3---2---3-2-------------------|

e-------------------------------------------|------------------------|
B-------------------------------------------|------------------------|play
G-------------------------------------------|------------------------|line two
D---5--------4--------5--------4--------5-4-|-5h7-7-7----------------|2x
A---0--0--0--0--0--0--0--0--0--0--0--0--0-0-|-0(0)0-0--0--0--0--0----|
E-------------------------------------------|------------------------|

e-------------------------------------------|------------------------|
B-------------------------------------------|------------------------|
G-------------------------------------------|------------------------|
D---5--------4--------5--------4--------5-4-|-5h7-7-7----------------|
A---0--0--0--0--0--0--0--0--0--0--0--0--0-0-|-0(0)0-0--0--0--0--0----|
E-------------------------------------------|------------------------|

e-------------------------------------------|------------------------|
B-------------------------------------------|------------------------|
G-------------------------------------------|------------------------|
D---5--------4--------5--------4--------5-4-|-5h7-7-7----------------|
A---0--0--0--0--0--0--0--0--0--0--0--0--0-0-|-0(0)0-0--0--0--0--0----|
E-------------------------------------------|------------------------|

e-------------------------------------------|------------------------|
B-------------------------------------------|------------------------|
G-------------------------------------------|------------------------|
D---5--------4--------5--------4--------5-4-|-5h7-7-7----------------|
A---0--0--0--0--0--0--0--0--0--0--0--0--0-0-|-0(0)0-0--0--0--0--0----|
E-------------------------------------------|------------------------|

e--2-----3-----2------3-3-3-3--2-----|
B--3-----3-----3------3-3-3-3--3-----|
G--2-----0-----2------0-0-0-0--2-----|
D--0-----0-----0------0-0-0-0--0-----|
A--x-----x-----x------x-x-x-x--x-----|
E--2-----3-----2------3-3-3-3--2-----|

e------------------------3-----------|
B------------------------3-----------|
G----------2-------------0-----------|
D--2-------2-------2-----0-----------|
A--2-------0-------2-----x-----------|
E--0---------------0-----3-----------|

e-------------------------------------------|------------------------|
B-------------------------------------------|------------------------|
G-------------------------------------------|------------------------|
D---5--------4--------5--------4--------5-4-|-5h7-7-7----------------|
A---0--0--0--0--0--0--0--0--0--0--0--0--0-0-|-0(0)0-0--0--0--0--0----|
E-------------------------------------------|------------------------|

e-------------------------------------------|------------------------|
B-------------------------------------------|------------------------|
G-------------------------------------------|------------------------|
D---5--------4--------5--------4--------5-4-|-5h7-7-7----------------|
A---0--0--0--0--0--0--0--0--0--0--0--0--0-0-|-0(0)0-0--0--0--0--0----|
E-------------------------------------------|------------------------|

e-------------------------------------------|------------------------|
B-------------------------------------------|------------------------|
G-------------------------------------------|------------------------|
D---5--------4--------5--------4--------5-4-|-5h7-7-7----------------|
A---0--0--0--0--0--0--0--0--0--0--0--0--0-0-|-0(0)0-0--0--0--0--0----|
E-------------------------------------------|------------------------|
[ Tab from: http://www.guitartabs.cc/tabs/a/ac_dc/hell_aint_a_bad_place_to_be_tab_ver_6.html ]
e-------------------------------------------|------------------------|
B-------------------------------------------|------------------------|
G-------------------------------------------|------------------------|
D---5--------4--------5--------4--------5-4-|-5h7-7-7----------------|
A---0--0--0--0--0--0--0--0--0--0--0--0--0-0-|-0(0)0-0--0--0--0--0----|
E-------------------------------------------|------------------------|

e--2-----3-----2------3-3-3-3--2-----|
B--3-----3-----3------3-3-3-3--3-----|
G--2-----0-----2------0-0-0-0--2-----|
D--0-----0-----0------0-0-0-0--0-----|
A--x-----x-----x------x-x-x-x--x-----|
E--2-----3-----2------3-3-3-3--2-----|

e------------------------3-----------|
B------------------------3-----------|
G----------2-------------0-----------|
D--2-------2-------2-----0-----------|
A--2-------0-------2-----x-----------|
E--0---------------0-----3-----------|

Solo

e---------------------------|repeat
B---------------------------|over and
G---------------------------|over again
D--7~-7~-7~-7~-7~-7~-7~-7~--|
A---------------------------|
E---------------------------|

e------------------------------------------5---------------------------------------|
B--------------------------------------------8p5---------8b(10)-(10)-(10)-(10)~~~--|
G----------------9--7~--7~7~--7~7~--7~7~---------7p5-------------------------------|
D-x-------10--7~-------------------------------------7/----------------------------|
A---x------------------------------------------------------------------------------|
E-----x----------------------------------------------------------------------------|

e-----------------------------------------------------------|
B-10-10/\-10-10/\-10-10/\-10-10--13-13~~~-13b(15)r13-10~~~--|
G-----------------------------------------------------------|
D-----------------------------------------------------------|
A-----------------------------------------------------------|
E-----------------------------------------------------------|

e---------------15----15-----------15---------|
B-15b-15b-15-17----17----17-17--17----17--17--|
G---------------------------------------------|
D---------------------------------------------|
A---------------------------------------------|
E---------------------------------------------|

e--17-17~~~~--17-17-17-17~~~~~~~----|
B-----------------------------------|
G-----------------------------------|
D-----------------------------------|
A-----------------------------------|
E-----------------------------------|

e--2-----3-----2------3-3-3-3--2-----|
B--3-----3-----3------3-3-3-3--3-----|
G--2-----0-----2------0-0-0-0--2-----|
D--0-----0-----0------0-0-0-0--0-----|
A--x-----x-----x------x-x-x-x--x-----|
E--2-----3-----2------3-3-3-3--2-----|

e------------------------3-----------|
B------------------------3-----------|
G----------2-------------0-----------|
D--2-------2-------2-----0-----------|
A--2-------0-------2-----x-----------|
E--0---------------0-----3-----------|

e-------------------------------------------|------------------------|
B-------------------------------------------|------------------------|
G-------------------------------------------|------------------------|
D---5--------4--------5--------4--------5-4-|-5h7-7-7----------------|
A---0--0--0--0--0--0--0--0--0--0--0--0--0-0-|-0(0)0-0--0--0--0--0----|
E-------------------------------------------|------------------------|

e-------------------------------------------|------------------------|
B-------------------------------------------|------------------------|
G-------------------------------------------|------------------------|
D---5--------4--------5--------4--------5-4-|-5h7-7-7----------------|
A---0--0--0--0--0--0--0--0--0--0--0--0--0-0-|-0(0)0-0--0--0--0--0----|
E-------------------------------------------|------------------------|

e-------------------------------------------|------------------------|
B-------------------------------------------|------------------------|
G-------------------------------------------|------------------------|
D---5--------4--------5--------4--------5-4-|-5h7-7-7----------------|
A---0--0--0--0--0--0--0--0--0--0--0--0--0-0-|-0(0)0-0--0--0--0--0----|
E-------------------------------------------|------------------------|

e-------------------------------------------|------------------------|
B-------------------------------------------|------------------------|
G-------------------------------------------|------------------------|
D---5--------4--------5--------4--------5-4-|-5h7-7-7----------------|
A---0--0--0--0--0--0--0--0--0--0--0--0--0-0-|-0(0)0-0--0--0--0--0----|
E-------------------------------------------|------------------------|

e----------------------------------------------|
B----------------------------------------------|
G----------------------------------------------|
D--5h7-7-7----5h7-7-7----5h7-7-7---5-7--7--7---|
A--0-0-0-0----0-0-0-0----0-0-0-0---0-0--0--0---|
E----------------------------------------------|

Notation used:
h-hammer on
(0)-ghost note
x-pick scratch (except on the chords)
b-bend
/-slide up
\-slide down
p-pull off
~-vibrato
Comments