Ac Dc - Hell Aint A Bad Place To Be Chords & Tabs

 

Hell Aint A Bad Place To Be Chords & Tabs

Ac Dc Chords & Tabs

Version: 5 Type: Tab 0 ratings
1 star 2 stars 3 stars 4 stars 5 stars
comments

Hell Aint A Bad Place To Be Tab

   Intro
      
 Angus:                         let ring
                                 |---------------|
  |----------------------------------------------|
  |-8----7----8----7----8---7--------------------|
  |-7----7----7----7----7---7---2----------------|
  |-0----0----0----0----0---0---2----------------|         (play 4 times)
  |-----------------------------0----------------|
  |----------------------------------------------|


 Malcom:

  |-3----2----3----2----3---2--------------------|
  |-3----3----3----3----3---3--------------------|
  |-0----2----0----2----0---2---2----------------|
  |-0----0----0----0----0---0---2----------------|
  |-x----0----x----0----x---0---0----------------|
  |-3---------3---------3------------------------|


   thats it! enjoy
[ Tab from: http://www.guitartabs.cc/tabs/a/ac_dc/hell_aint_a_bad_place_to_be_tab_ver_5.html ]
Comments