Ac Dc - Hell Aint A Bad Place To Be Chords & Tabs

 

Hell Aint A Bad Place To Be Chords & Tabs

Ac Dc Chords & Tabs

Version: 2 Type: Tab 5 ratings
1 star 2 stars 3 stars 4 stars 5 stars
comments

Hell Aint A Bad Place To Be Tab

   
HELL AINT A BAD PLACE TO BE
BY AC DC
ALBUM:LET THERE BE ROCK
TABBED BY:MXKING246@AOL.COM

B=BEND
R=RELEASE
PO=PULL OFF
\=SLIDE DOWN
/=SLIDE UP

\\\==PICK SLIDE     
 \\\

X=DEAD NOTE
~=VIBRATO
H=HAMMER ON

INTRO:
|---3----2------3----2----3----2---------------------------------------------------------|
|---3----3------3----3----3----3-----2---------------------------------------------------|
|---0----2------0----2----0----2-----2---------------------------------------------------|
|---0----0------0----0----0----0-----2---------------------------------------------------|
|------------------------------------0---------------------------------------------------|
|---3----0------3----3----3----3---------------------------------------------------------|play 4 times

|----------------------------------|------------------|----------------------------------|
|----------------------------------|-------2--2--2----|--------2--2--2-------------------|
|----------------------------------|-------2--2--2----|--------2--2--2-------------------|rythym fig 1
|--5-----4-----5-----4-----5-----4-|---5---2--2--2----|----5---2--2--2-------------------|
|--0-----0-----0-----0-----0-----0-|---0---0--0--0----|----0---0--0--0-------------------|
|----------------------------------|------------------|----------------------------------|
rythym fig 1 play four times
rythym fig 1 (first 2 bars)

|-------------------------------------------------------------------3--------------------|
|--3-------3-------3-------3--3--3--3---3----0---0---2--------------3--------------------|
|--2-------2-------2-------2--2--2--2---2----1---1---2-------1------0--------------------|rythym fig 2
|--4-------5-------4-------5--5--5--5---4----2---2---2-------2------0--------------------|
|--0-------0-------0-------0--0--0--0---0----2---2---0-------2---------------------------|
|--------------------------------------------0---0-----------0------3--------------------|
rythym fig 1 five times

rythym fig 1 (first 2 bars)
rythym fig 2

solo:
   ~~~~~~~~~~~~~~~~~~~~~~~~~                              ~~~               B
|-----------------------------------------------------------------------------------------|
|--------------------------------------------------5--------------------------------------|
|--2-2-2-2-2-2-2-2-2-2-2-2-2-----------------------5----------------------7(9)-----7------|
|-------------------------------x\-----7--7--7--7--5--7--7----------0h5h7-----------------|
|-------------------------------x\\----0--0--0--0-------------0h5h7-----------------------|
|-------------------------------x\\\------------------------------------------------------|
                                  \\\
|-----------------------------------------------------------------------------------------|
|------------------------------------------------2--2--2-------------2--2--2--------------|
|------------------------------------------------2--2--2-------------2--2--2--------------|rythym fig 3
|--5--------4--------5-------4-------5---4----5--2--2--2----------5--2--2--2--------------|
|--0--0--0--0--0--0--0-0--0--0--0--0-0-0-0-0--0--0--0--0-0-0-0-0--0--0--0--0-0---0---0--0-|
|-----------------------------------------------------------------------------------------|
rythym fig 3 (two times)
[ Tab from: http://www.guitartabs.cc/tabs/a/ac_dc/hell_aint_a_bad_place_to_be_tab_ver_2.html ]
      B            B                          ~~~       B  HOLD BEND-------------------|~~~
|--------------------------5--------------------------------------------------------------|
|----------------------------8po5---5-----------------8(10)-(10)-(10)-(10)-(10)-(10)-(10)-|
|---7(9)--7------7(9)--7----------7---5---7-5---------------------------------------------|
|--------------7------------------------7-----7---\---------------------------------------|
|-----------------------------------------------------------------------------------------|
|-----------------------------------------------------------------------------------------|
                                                              B       B       B
|-----------------------------------------------------------------------------------------|
|----------10--10-------10-10-10-------10-10------10-10----12(14)--12(14)--13(15)---------|
|--2-2--0----------7/11-----------7/11-------9/11-----------------------------------------|
|--2-2--0---------------------------------------------------------------------------------|
|-----------------------------------------------------------------------------------------|
|-----------------------------------------------------------------------------------------|
                                                           hold bend     hold bend
         ~~~~          B        B                 R             B           B 
|---------------------------------------------------------------------15------------------|
|--13--10-----\-----15(17)---15(17)---(17)----(17)15-13------15(17)-------15(17)----------|
|-----------------------------------------------------------------------------------------|
|-----------------------------------------------------------------------------------------|
|-----------------------------------------------------------------------------------------|
|-----------------------------------------------------------------------------------------|
          hold bend----------------------|
             B                                  B             B          B       B
|-----15------------------------------------------------15------------15(17)--15(17)-(17)\-|
|---------15(17)---(17)--(17)--(17)--(17)---15(17)---------15(17)--------------------------|
|------------------------------------------------------------------------------------------|
|------------------------------------------------------------------------------------------|
|------------------------------------------------------------------------------------------|
|------------------------------------------------------------------------------------------|
      B       B
|--15(17)--15(17)--(17)-------------------------------------------------------------------|
|-----------------------------------------------------------------------------------------|
|-----------------------------------------------------------------------------------------|
|-----------------------------------------------------------------------------------------|
|-----------------------------------------------------------------------------------------|
|-----------------------------------------------------------------------------------------|
 rythym fig 2

rythym fig 3 (four times)

|-----------------------------------------------------------------------------------------|
|--2--2--2--2----2--2--2--2----2--2--2--2----2--2--2--2-----------------------------------|
|--2--2--2--2----2--2--2--2----2--2--2--2----2--2--2--2-----------------------------------|
|--2--2--2--2----2--2--2--2----2--2--2--2----2--2--2--2-----------------------------------|
|--0--0--0--0----0--0--0--0----0--0--0--0----0--0--0--0-----------------------------------|
|-----------------------------------------------------------------------------------------|
Comments