Ac Dc - Heatseeker Chords & Tabs

 

Heatseeker Chords & Tabs

Ac Dc Chords & Tabs

Version: 1 Type: Tab 0 ratings
1 star 2 stars 3 stars 4 stars 5 stars
comments

Heatseeker Tab

Artist-Ac/dc
Album-Blow Up you Video/ac/dc live 
Guitarist-Angus Young and Malcome Young
Tabbed By-smellslikefeet1

h-hammeron
p-pull off
s-slide
Intro                        were gettin ready
|--------------------------------------------------|
|--------------------------------------------------|
|-----8----8----8-------8--------------------------|
|-----8----8----8-------8---8-------------------8--|
|--6-----6----6--------6----8-------------------8--|
|-6-----8----6----6h8p6-----6-------------------6--|
                            ^make this cord go real loud
|------|
|------|
|------|
|--8---|
|--8---|play this cord as many times as needed in the intro
|--6---|

Intro , chorus lick and bridge to solo
|-----------------------------------------|
|-----------------------------------------|
|-----8----8----8----8--------------------|
|-----8----8----8----8--------------------|this is the lick angus plays over 
|--6h8--6h8--6h8--6h8---------------------|the cords.play is fast
|--6----6----6----6-----------------------|play as many times as needed

then play this
|--------------------------|
|--------------------------|
|--------8-----------------|
|--8--6--8-----------------|x2
|--8--6--6-----------------|
|--6--4--------------------|
[ Tab from: http://www.guitartabs.cc/tabs/a/ac_dc/heatseeker_tab.html ]
verse1
Were getting ready to rock...
|----------------------------------|
|----------------------------------|this is muted slightly
|----8-----8--------8--------------|
|----8-----8--------8--------------|
|--6---6-6---6-6-6-6---------------|play as many times as in the verse
|--6---6-6---6-6-6-6---------------|


bridge to chours
|--------------------------|
|--------------------------|
|--------8-----------------|
|--8--6--8-----------------|x2
|--8--6--6-----------------|
|--6--4--------------------|


chorus
|-----------------------------------------|
|-----------------------------------------|
|-----8----8----8----8--------------------|
|-----8----8----8----8--------------------| 
|--6h8--6h8--6h8--6h8---------------------|
|--6----6----6----6-----------------------|


malcome strums this cord though the chorus
|----|
|----|
|----|
|--8-|
|--8-|
|--6-|

outro frum chours
dont need no one to hose me down....
|--------------------------------|
|--------------------------------|
|--------------------------------|
|---6--6-6--6--6-6-6--8----------|
|---6--6-6--6--6-6-6--8----------|
|---4--4-4--4--4-4-4--6----------|

play this through solo and ending
|---------------------|
|---------------------|
|---------------------|
|---6-6-8-6-6-8-6-----|
|---6-6-8-6-6-8-6-----|
|---4-4-6-4-4-6-4-----|



Line Up:
Intro
verse
bridge
chorus
chorus outro
intro lick
verse
bridge
chorus
outro
solo{solo cords}
intro lick
Ending{solo cords}

If theres anythign worng with it email me at black_blizzord@msn.com
ACDC RULES
ENjoy
Comments