Ac Dc - Heatseeker Chords & Tabs

 

Heatseeker Chords & Tabs

Ac Dc Chords & Tabs

Version: 1 Type: Bass Tab 1 rating
1 star 2 stars 3 stars 4 stars 5 stars
comments

Heatseeker Bass Tab

   
Heatseeker
AC/DC
Blow Up Your Video


Intro pt.1 (0:07)

G|---------
D|---------
A|---------
E|-----6~~~

Intro pt.2 (0:13-0:24)
G|---------
D|---------
A|---------
E|666666666

Intro pt.3 (0:24-0:30)
G|----------------
D|--------6-5-----
A|-----6------6---
E|-6-4------------

Intro pt.4 (0:30-0:36)
G|---------
D|---------
A|---------
E|666666666

Verse (0:36-0:48)
G|-----------------
D|-----------------
A|66666666666666666
E|-----------------

Chorus pt.1 (0:48-1:00)
G|-----------------|    |---------------|
D|---------6-5-----|    |---------------|
A|-----6------6----| x2 |-5-3-1---------|
E|-6-4-------------|    |---------------|

Chorus pt.2 (1:00-1:09)
G|-----------------
D|-----------------
A|-----------------
E|66666666666666666

Chrous pt.3 (1:09-1:15)
G|---------------------------
D|---------------------------
A|-3-4--3-4--3-4--3-4-3-4-3-0
E|---------------------------

Chorus pt.4 (1:15-1:21)
G|---------------------------
D|---------------------------
A|---------------------------
E|666666666666666666666666666

Verse (1:21-1:33)
G|---------------------------
D|---------------------------
A|666666666666666666666666666
E|---------------------------

Chorus (1:33-1:46)
G|--------------|    |---------
D|--------6-5---|    |---------
A|-----6------6-| x2 |-5-3-1---
E|-6-4----------|    |---------

Chorus pt. 2(1:46-1:54)
G|---------------------------
D|---------------------------
A|---------------------------
E|666666666666666666666666666

Chorus pt. 3(1:54-2:00)
G|---------------------------
D|---------------------------
A|-3-4--3-4--3-4--3-4-3-4-3-0
E|---------------------------
[ Tab from: http://www.guitartabs.cc/tabs/a/ac_dc/heatseeker_btab.html ]
Prelude (2:00-2:09)  Pause at 2:04, then re-enter at 2:07   Pause again 
G|------------------                                     |-|
D|------------------                                     |-|
A|------------------                                     |-|
E|666666666666666666                                     |6|

Guitar Solo (2:09-2:28)
G|----------------------------------------------|-------------------
D|----------------------------------------------|-------------------
A|-3-4--3-4--3-4-3-0-3-4---5-6--5-6--5-6-5-3-5-6|-3-4--3-4--5-6--5-6
E|----------------------------------------------|-------------------

Prolude (2:28-2:40)
G|--------------------------------------------|
D|--------------------------------------------|
A|--------------------------------------------|
E|6-6-66-6-66--66-6-66-6-66--6-6-66--6-6-6-6-6|

Verse pt.1 (2:40-2:46)
G|---------------
D|---------------
A|666666666666666
E|---------------

Verse pt.2 (2:46-2:52)
G|---------------
D|---------------
A|---------------
E|666666666666666

Verse pt.3 (2:52-2:58)
G|---------------
D|---------------
A|666666666666666
E|---------------

Verse pt.4 (2:58-3:01)
G|---------------
D|---------------
A|---------------
E|666666666666666

Chorus pt.1 (3:01-3:13)
G|--------------|    |----------
D|---------6-5--|    |----------
A|-----6-------6| x2 |-5-3-1----
E|-6-4----------|    |----------

Chorus pt.2 (3:13-3:16)  (3:16-3:22)
G|---------------|       |-----------------------
D|---------------|       |-----------------------
A|---------------|       |3-4--3-4--3-4-3-4-3-4-6
E|666666666666666|       |-----------------------

(3:22-3:34)
G|-----------|    |-----------------------|
D|-----------|    |-----------------------|
A|-----------|    |-----------------------|
E|66666666666|    |6-6-66-6-66-6-6-66-6-66|

Comments