Ac Dc - Have A Drink On Me Chords & Tabs

 

Have A Drink On Me Chords & Tabs

Ac Dc Chords & Tabs

Version: 2 Type: Tab 3 ratings
1 star 2 stars 3 stars 4 stars 5 stars
comments

Have A Drink On Me Tab

Artist: AC/DC
Song: Have A Drink On Me 
Tabbed by: John Leadman


  Intro:
E|---------------------|------------------|-----------------------------|
B|------8--------------|------------------|------8----------------------|
G|--7/9----------------|------------------|--7/9----9-----7-------------|
D|---------------------|------------------|------------7-----10--7------|
A|---------------------|------------------|-------------------------10--|
E|---------------------|------------------|-----------------------------|

|------------------------|-----------------------------|------------------------|
|--5---------7-----------|------8----------------------|--5---------7-----------|
|--5-6-------7-----------|--7/9----9-----7-------------|--5-6-------7-----------|
|--5---------7-----------|------------7-----10--7------|--5---------7-----------|
|--0---0--0--0--------0--|-------------------------10--|--0---0--0--0--------0--|
|------------------------|-----------------------------|------------------------|

|-----------------------------|------------------------|
|------8----------------------|--5---------7-----------|
|--7/9----9-----7-------------|--5-6-------7-----------|
|------------7-----10--7------|--5---------7-----------|
|-------------------------10--|--0---0--0--0--------0--|
|-----------------------------|------------------------|

|-----------------------------|---------2----------|-----------------------|
|------8----------------------|--2------3----------|--5--------2-----------|
|--7-9----9-----7-------------|--2------2----------|--5--------2-----------|
|------------7-----10--7------|--2------0----------|--5--------2-----------|
|-------------------------10--|--0------0----------|--3--0--3--0--------0--|
|-----------------------------|--------------------|-----------------------|


Chorus:
|-------------------------|-----------------------------|
|---5---------7-----------|------8----------------------|
|*--5-6-------7-----------|--7/9----9-----7-------------|
|*--5---------7-----------|------------7-----10--7--10--|
|---0---0--0--0--------0--|-----------------------------|
|-------------------------|-----------------------------|
[ Tab from: http://www.guitartabs.cc/tabs/a/ac_dc/have_a_drink_on_me_tab_ver_2.html ]
|------------------------|-----------------------|------------------------|
|--5---------7-----------|--5--------2-----------|--5---------7-----------|
|--5-6-------7-----------|--5--------2-----------|--5-6-------7-----------|
|--5---------7-----------|--5--------2-----------|--5---------7-----------|
|--0---0--0--0--------0--|--3--0--3--0--------0--|--0---0--0--0--------0--|
|------------------------|-----------------------|------------------------|

|-----------------------------|------------------------|----------------------|
|------8----------------------|--5---------7-----------|--5--------2----------|
|--7-9----9-----7-------------|--5-6-------7-----------|--5--------2----------|
|------------7-----10--7------|--5---------7-----------|--5--------2----------|
|-------------------------10--|--0---0--0--0--------0--|--3--0--3--0----------|
|-----------------------------|------------------------|----------------------|


Verse:
|-------------------------|--------------------------|-------------------------|
|-------------------------|--------------------------|-------------------------|
|-------------------------|--------------------------|-------------------------|
|--5----4--5--------------|-----5--5--4--5-----7-----|--5----4--5--------------|
|--0----0--0--0--0--0--0--|--0--0--0--0--0--0--0--0--|--0----0--0--0--0--0--0--|
|-------------------------|--------------------------|-------------------------|

|--------------------------|--------------------------|-------------------------|
|--------------------------|--------------------------|-------------------------|
|--------------------------|-----------------2-2-2----|-------------------------|
|-----5--5--4--5-----7-----|--5--5--4--5-----2-2-2----|----5--5--4--5-----7-----|
|--0--0--0--0--0--0--0--0--|--0--0--0--0--0--0-0-0----|----0--0--0--0--0--0--0--|
|--------------------------|--------------------------|-------------------------|

|-----------------3-3-3----|-------------------------|--------------------------|
|-----------------3-3-3----|-------------------------|-----------------3-3-3----|
|-----------------0-0-0----|-------------------------|-----------------2-2-2----|
|--5--5--4--5-----0-0-0----|----5--5--4--5-----7-----|--5--5--4--5-----0-0-0----|
|--0--0--0--0--0-----------|----0--0--0--0--0--0--0--|--0--0--0--0--0--0-0-0----|
|-----------------3-3-3----|-------------------------|--------------------------|

|-------------------------|--2------2------2----|--1-------3------------|
|-------------------------|--3------3------3----|--1-------3------------|
|-------------------------|--2------2------2----|--2-------4-----------*|
|----5--5--4--5-----7-----|--0------0------0----|--3-------5-----------*|
|----0--0--0--0--0--0--0--|---------------------|--3-------5--------0---|
|-------------------------|---------------------|--1----1--3------------|


 
Comments