Ac Dc - Hail Caesar Chords & Tabs

 

Hail Caesar Chords & Tabs

Ac Dc Chords & Tabs

Version: 2 Type: Tab 0 ratings
1 star 2 stars 3 stars 4 stars 5 stars
comments

Hail Caesar Tab

   
AC/DC - "Hail Caesar"
From album "Ballbreaker"

Tabbed by Andreas Larsson (johnnyballe666@hotmail.com)



Regular tuning

 ||----||
*||----||*  <= repeat
*||----||*
 ||----||


Intro part1
low distortion

e ||--------------------------------||
B ||--------------------------------||
G*||--------------------------------||*
D*||---------------------------2----||*
A ||2--2----2--2----2--2---2---0----||
E ||3--0----3--0----3--0---3--------||


Intro part2 / Chorus
Reg. distortion

e ||----------------------------------------------------------------||
B ||----------------------------------------------------------------||
G*||----------------------------------------------------------------||*
D*||---------------------------2-------------------------------2----||*
A ||2--2----2--2----2--2---2---0----2--2----2--2----2--2---2---0----||
E ||3--0----3--0----3--0---3--------3--0----3--0----3--0---3--------||


Verse

e ||----------------------------------------------------------------||
B ||----------------------------------------------------------------||
G*||----------------------------------------------------------------||*
D*||-------2--------------------------------------------------------||*
A ||2---2--0--2--2--------------------------------------------------||
E ||0---3-----3--0--------------------------------------------------||

e ||----------------------------------------------------------------||
B ||----------------------------------------------------------------||
G*||----------------------------------------------------------------||*
D*||-------2--------------------------------------------------------||*
A ||2---2--0--2--2--------------------------------------------------||
E ||0---3-----3--0--------------------------------------------------||

  e|----------------------------------------------------------------||
  B|----------------------------------------------------------------||
  G|---------------------------------------2----------------------2-||*
  D|-------4---------------4--------2---2--0--2--2--2---2--2---2--0-||*
  A|4---0--2-p0--4--4---0--2-p0--4--0---3-----0--3--0---3--0---3----||
  E|2------------2--2------------2----------------------------------||

  e|----------------------------------------------------------------||
  B|----------------------------------------------------------------||
  G|------------------------------------2-------2-------2-----2-----||*
  D|-------4---------------4----------4-0-4-4-4-0-4-4-4-0-4-4-0-----||*
  A|4---0--2-p0--4--4---0--2-p0--4----2---2-2-2---2-2-2---2-2-------||
  E|2------------2--2------------2----------------------------------||


*Chorus*

*Verse*


Bridge lick
[ Tab from: http://www.guitartabs.cc/tabs/a/ac_dc/hail_caesar_tab_ver_2.html ]
Lead guitar        Backgr. guitar
  e|--------------------------------|
  B|---------------3----------------|
  G|9p7------------2----------------|
  D|----8-7--------0--3--0----------|
  A|--------10-7------1--0--5---2---|
  E|------------------------3---0---|

Lead guitar
  e|--------------------------------|
  B|--------------------------------|
  G|9p7-----------------------------|
  D|----8-7-------------------------|
  A|--------10-7----5-75--------2---|
  E|--------------------6-5-3---0---|


*Solo*


Solo background

e ||----------------------------------||
B ||3----------------3----------------||
G*||2----------------2----------------||*
D*||0---3--0---------0--3--0----------||*
A ||----1--0--5--2------1--0--5---2---||
E ||----------3--0------------3---0---||

e ||----------------------------------||
B ||3----------------3----------------||
G*||2----------------2----------------||*
D*||0---3--0---------0--3--0----------||*
A ||----1--0--5--2------1--0--5---2---||
E ||----------3--0------------3---0---||

e ||----------------------------------||
B ||----------------------------------||
G*||7---------------------------------||*
D*||5---8--7--5--2---5--2---5-2-------||*
A ||----6--5--3--0---3--0---3-0-------||
E ||----------------------------------||

e ||----------------------------------||
B ||3----------------3----------------||
G*||2----------------2----------------||*
D*||0---3--0---------0--3--0----------||*
A ||----1--0--5--2------1--0--5---2---||
E ||----------3--0------------3---0---||


*Bridge lick*


Bass riff background
                           p.m.
e ||------------------------------||
B ||------------------------------||
G*||------------------------------||*
D*||------------------------------||*
A ||------------------------------||
E ||3-0-0-0-3-0-0-0-3-0-0-3-0-5-0-||


Guitar

e ||----------------------------------------------------------------||
B ||----------------------------------------------------------------||
G*||----------------------------------------------------------------||*
D*||--------------------------------------------------------2-------||*
A ||(2)---------------------------2--2----2--2----2--2---2--0--2----||
E ||(0)---------------------------3--0----3--0----3--0---3-----0----||


e ||----------------------------------------------------------------
B ||----------------------------------------------------------------
G*||----------------------------------------------------------------
D*||-------2--------------------------------------------------------
A ||2---2--0--2--2--------------------------------------------------
E ||0---3-----3--0--------------------------------------------------

  e ----------------------------------------------------------------||
  B ----------------------------------------------------------------||
  G 3---------------------------------------------------------------||*
  D 0---3--0--------------------------------------------------------||*
  A ----1--0--5--2--------------------------------------------------||
  E ----------3--0--------------------------------------------------||

Solo and outro
Comments