Ac Dc - Gone Shootin Chords & Tabs

 

Gone Shootin Chords & Tabs

Ac Dc Chords & Tabs

Version: 3 Type: Tab

Gone Shootin Tab

 Intro:
E|----------------2--|------------------|-------------------2--|
B|----------------2--|------------------|-------------------2--|
G|-------------------|------------------|----------------------|
D|-------------------|------------------|--------2-------------|
A|-------------------|------------------|----2-4---------------|
E|-------------------|------------------|----------------------|

|------------------|-------------------2--|------------------|
|------------------|-------------------2--|------------------|
|------------------|----------------------|------------------|
|------------------|--------2-------------|------------------|
|------------------|----2-4---------------|------------------|
|------------------|----------------------|------------------|

|-------------------2--|------------------|-------------------2--|
|-------------------2--|------------------|-------------------2--|
|----------------------|------------------|----------------------|
|--------2-------------|------------------|--------2-------------|
|----2-4---------------|------------------|----2-4---------------|
|----------------------|------------------|----------------------|
[ Tab from: http://www.guitartabs.cc/tabs/a/ac_dc/gone_shootin_tab_ver_3.html ]
|------------------|-------------------2--|------------------|
|------------------|-------------------2--|------------------|
|------------------|----------------------|------------------|
|------------------|--------2-------------|------------------|
|------------------|----2-4---------------|------------------|
|------------------|----------------------|------------------|

 Verse:
|-----2------0----0----|----------------------2---|
|-----2------2----0----|--4-----------------------|
|----------------------|--4----2-3--------2-3-----|
|----------------------|-----------4--------------|
|----------------------|--------------------------|
|----------------------|--------------------------|

to Chorus:
|----2------0----0----|------------------------|------------------|
|----2------2----0----|--4---------------------|------------------|
|---------------------|--4----2-3-----------6--|------------------|
|---------------------|-----------4---------6--|------------------|
|---------------------|------------------2--4--|------------------|
|---------------------|------------------------|------------------|

|-------------------|-------------------|------------------|
|-------------------|-------------------|------------------|
|----------------4--|----------------2--|------------------|
|----------------4--|----------------2--|------------------|
|----------------2--|----------------0--|------------------|
|-------------------|-------------------|------------------|