Ac Dc - Go Zone Chords & Tabs

 

Go Zone Chords & Tabs

Ac Dc Chords & Tabs

Version: 2 Type: Tab 0 ratings
1 star 2 stars 3 stars 4 stars 5 stars
comments

Go Zone Tab

   
Go Zone Tab by Ac Dc, www.Ultimate-Guitar.Com

------------------------------------------------------------------|
-5-5-3-2-3-2-3-2-5-5-3-2-3-2-3-2-5-5-3-2-3-2-3-2-5-5-3-2-3-2-3-2--|
-2-2-2-2-2-2-2-2-2-2-2-2-2-2-2-2-2-2-2-2-2-2-2-2-2-2-2-2-2-2-2-2--|
------------------------------------------------------------------|
------------------------------------------------------------------|
------------------------------------------------------------------|

--15b-~~~~-15-13-12----12---------------------------------|
--------------------15----15--12-14-12-15-12~-------------|
------------------------------12-12-12-12-12~-14b(15)-----|
----------------------------------------------------------|
------------------------------------------------------/---|
----------------------------------------------------------|
[ Tab from: http://www.guitartabs.cc/tabs/a/ac_dc/go_zone_tab_ver_2.html ]
---------------------------------------------------------------------------------------------|
--14b(15)-15-15--12-15-14-12----12-----------------------------------------------------------|
-----------------------------14----14------------------------------------------------/7-9-7--|
--------------------------------------11-12-12----11------12b~~-----<7>-5----<9>~~~----------|
-----------------------------------------------12----12----------/--------<7>----------------|
---------------------------------------------------------------------------------------------|

-----------5-2-0---0---------------------------------------------------------------------------|
-----------------2--------------------------------------------------15b-12-15-12-15b12--15-15--|
----7----------------2~~~~---------------------------------------------------------------------|
--9---9----------------------0-2-0-----0-------------------------------------------------------|
------------------------------------2b---r0----------------------------------------------------|
------------------------------------------------7-7---7\---7-7--7\-----------------------------|

--3-5b~~r-3-0-------------------------------------------------------------------------------|
--------------3-5~~-------------------------------------------------------------------------|
--------------------2-/7-9b~~r-7---7----------7-9b-r7---7--------7/12-9-7---7---------------|
---------------------------------9---7~~---------------9---7~~-------------9---9--7~~~~~~~--|
------------------------------------------/-\-----------------------------------------------|
--------------------------------------------------------------------------------------------|

Notation used:
b-bend
~-vibrato
/-slide
r-release
<1>-pinch harmonic
(15)-ghost note
Comments