Ac Dc - Go Zone Chords & Tabs

 

Go Zone Chords & Tabs

Ac Dc Chords & Tabs

Version: 1 Type: Tab 0 ratings
1 star 2 stars 3 stars 4 stars 5 stars
comments

Go Zone Tab

Tuning: Standard

e--------------------|----------------|--------------|
B--------------------|----------------|--------------|
G--------------------|----------------|--------------|
D----7---5-----------|---7---5--------|--------------|
A------------7~~~~~~-|----------7--5--|--3-----------|
E--------------------|----------------|-----5--3--0--|

e-------------|---------|
B---3-3-3-----|--3-3----|
G---2-2-2-2---|--2-2-2--|
D---0-0-0-2---|--0-0-2--|
A---------0---|------0--|
E-------------|---------|
[ Tab from: http://www.guitartabs.cc/tabs/a/ac_dc/go_zone_tab.html ]
e-------------------------------------------|
B---2-3-3-----------------------------------|
G---2-2-2-2-------0-2-------0-2---0h2-0h2---|
D---0-0-0-2-------0-2-------0-2---0h2-0h2---|
A---------0-------0-0-------0-0---0---0-----|
E-------------------------------------------|

e------------------|-------------------|-------------------|-----------------------|
B------------------|-------------------|---8-8-8---8---8---|----8-8-8---8----------|
G---5-5-5---5--(5)~|~~--5-5-5---5--(7)~|~~-7-7-7---7--(7)~~|~---7-7-7---7--7--2----|
D---5-5-5---5-5-5--|----5-5-5---5-5-7--|---5-5-5-7-5-7-5---|----5-5-5-7-5--7--2----|
A---3-3-3---3-5-3--|----3-3-3---3-5-5--|---5-----5---5-----|----5-----5----5--0----|
E---------3---3----|----------3---3----|-------------------|-----------------------|

Notation used
(5)-lead note
~-vibrato
h-hammer on
Comments