Ac Dc - Girls Got Rhythm Chords & Tabs

 

Girls Got Rhythm Chords & Tabs

Ac Dc Chords & Tabs

Version: 1 Type: Tab 6 ratings
1 star 2 stars 3 stars 4 stars 5 stars
comments

Girls Got Rhythm Tab

Girls got Rhythm
Artist:Ac/Dc (They Rock)

Main Riff:

1A                              
e---x---x-----------------
b---5---5-----------------
g---5---5-----------------
d---5---5-----------------
a---7---3-------0-0-3-0---
E---x---x---0-2-----------

1B
[ Tab from: http://www.guitartabs.cc/tabs/a/ac_dc/girls_got_rhythm_tab.html ]
e---x---x-----------------
b---5---5-----------------
g---5---5-----------------
d---5---5-----------------
a---7---7-------0-0-3-0---
E---x---x---0-2-----------

Before Chorus:

e---x-x-x-x-x----x-x-x-x-x-
b---4-4-4-4-4----x-x-x-x-x-    Then Back to Main Riffs
g---4-4-4-4-4----2-2-2-2-2-
d---4-4-4-4-4----2-2-2-2-2-            Listen to Song for timing!
a---2-2-2-2-2----2-2-2-2-2-               That's about it! Enjoy!!!
E---x-x-x-x-x----0-0-0-0-0-
Comments