Ac Dc - Get It Hot Chords & Tabs

 

Get It Hot Chords & Tabs

Ac Dc Chords & Tabs

Version: 1 Type: Tab

Get It Hot Tab

   
I can't believe that nobody has tabbed this song yet, it ROCKS!

   A#5
e|--------------------|  Repeat nine times before the vocals come in.
b|--------------------|
g|-10-x--10-12-10-12-.|
d|-8--x--8--8--8--8--.|
a|--------------------|
E|--------------------|
[ Tab from: http://www.guitartabs.cc/tabs/a/ac_dc/get_it_hot_tab.html ]
Malcolm might be doing something like this during the vocals.
  A#5
|--------------------------------|
|--------------------------------|
|-------------------------------.|
|-------------------------------.|
|-8-8--10-8-10----8-8-10-8-10-8--|
|-6-6--6--6-6-----6-6-6--6-6--6--|

The choruses go like this.
 A#5
|----------------|
|-Get it hot...--|
|-10-x-12-10----.|
|-8--x-8--8-----.|
|----------------|
|----------------|

Second part of chorus
  E5    B5 A5 B5
|----------------|
|----------------|
|--------4-2-4-4-|
|-2-2----4-2-4-4-|
|-2-2----2-0-2-2-|
|-0-0------------|
This song is in standard flat tuning, I tabbed it so that you don't have to tune flat.



Have Fun Playing This!


                               Eric W.