Ac Dc - Furor Chords & Tabs

 

Furor Chords & Tabs

Ac Dc Chords & Tabs

Version: 2 Type: Tab 0 ratings
1 star 2 stars 3 stars 4 stars 5 stars
comments

Furor Tab

Tab key:
b = full bend
hb = half bend
qb = quarter bend
tb = three quarter bend (don't try to be too accurate)
pb = prebend
p = pulloff
h = hammer on
bp = bend then pulloff (not to be confused with pb)
| = bar line

||    || 
||:  :||
||    || = repeat marks
||    ||
||:  :||
||    ||

~ = vibrato
(over note) . = staccato
(over note) < = accent
x = mute
\ = slide down
/ = slide up
t = tap note

Intro 
Guitar 1

e|| ------------------------------------ || |-------------|
B||:------3-3-3-3-3-3-------3-3-3-3-----:|| |3--3-3-3-3-3-|
G|| ------2-2-2-2-2-2-------2-2-2-2----- || |0--0-0-0-0-0-|
D|| 3qbp0-0-0-0-0-0-0-3qbp0-0-0-0-0---0- || |-------------|
A||:--------------------------------3---:|| |-------------|
E|| ------------------------------------ || |-------------|

Guitar 2

e|| --------------- || |------------------------|
B||:---------------:|| |------------------------|
G|| --------------- || |------------------------|
D|| --------------- || |------------------------|
A||:5-----10---8---:|| |5-------5-5-5-5-5-5-5-5-|
E|| 5-----8----6--- || |3-------3-3-3-3-3-3-3-3-|



Guitar 1

e|| -------------- || |-------------|
B||:3---3-3-3-3-3-:|| |3--3-3-3-3-3-|
G|| 2---2-2-2-2-2- || |0--0-0-0-0-0-|
D|| -------------- || |-------------|
A||:--------------:|| |-------------|
E|| -------------- || |-------------|

Guitar 2

e|| --------------- || |----------------|
B||:---------------:|| |----------------|
G|| --------------- || |----------------|
D|| --------------- || |----------------|
A||:5-----10---8---:|| |5-------3---3---|
E|| 5-----8----6--- || |3-------1---0---|

Verse

Guitar 1

e|| -------------- || |-------------|
B||:3---3-3-3-3-3-:|| |3--3-3-3-3-3-|
G|| 2---2-2-2-2-2- || |0--0-0-0-0-0-|
D|| -------------- || |-------------|
A||:--------------:|| |-------------|
E|| -------------- || |-------------|

Guitar 2

e|| --------------- || |------------------------|
B||:---------------:|| |------------------------|
G|| --------------- || |------------------------|
D|| --------------- || |------------------------|
A||:5-----10---8---:|| |5-------5-5-5-5-5-5-5-5-|
E|| 5-----8----6--- || |3-------3-3-3-3-3-3-3-3-|

Chorus

Guitar 1

e|| 5--5-5-5-5-10--10-10-10-10-12--12-12-12-12-7--7-7-7-7- ||
B||:6--6-6-6-6-11--11-11-11-11-13--13-13-13-13-8--8-8-8-8-:||
G||(7)--------(10)------------(12)------------(7)--------- ||
D|| ------------------------------------------------------ ||
A||:------------------------------------------------------:||
E|| ------------------------------------------------------ ||

Guitar 2

e|| -------------------------------- ||
B||:--------------------------------:||
G|| -------------------------------- ||
D|| 7-------3-------5--------------- ||
A||:5-------1-------3-------5-------:||
E|| ------------------------3------- ||

Just before the verse happens, it's the intro riff and then this:

e|-------------|
B|-------------|
G|12tb--10-----|
D|----------12-|
A|-------------|
E|-------------|
[ Tab from: http://www.guitartabs.cc/tabs/a/ac_dc/furor_tab_ver_2.html ]
Solo
             <   <                 <   <        .
e|----------------------------------------|-------------------------------|
B|----------------------------------------|15~--15---15-13----------------|
G|12b--------10--12-----12b--------10--12-|----------------14-12----14-12-|
D|12b-10-12--10--12--12~12b-10-12--10--12-|----------------------15-------|
A|-------12--------------------12---------|-------------------------------|
E|----------------------------------------|-------------------------------|

e|--------------------------------------------------------------------|
B|----------------------------------------------------------------13b-|
G|14-12--------------14-x-14b-12-14----------------------------14-----|
D|------15-12~-15-12----------------15b-15b-12------------------------|
A|---------------------------------------------12-15-12---------------|
E|------------------------------------------------------15-13\--------|
                           .  .  .  .  .  .
e|--------------------------------------------------------------------|
B|---13b---------------------------------------------------13b----13b-|
G|14-----14-12----12----------12----12-14-12-14~--12----14-----14-----|
D|-------------15----15-12-15----15------------------15---------------|
A|--------------------------------------------------------------------|
E|--------------------------------------------------------------------|

e|------------------15-13-15-13-15-13-15-15-13-15~-------------|
B|---13b----13b------------------------------------------------|
G|14-----14-----14---------------------------------------------|
D|-------------------------------------------------15b-12-12---|
A|-------------------------------------------------------------|
E|-------------------------------------------------------------|

Intro riff twice

Chorus 

then:

e|---------------------------------------------------------------------|
B|-----------------------------------13b---13b-13b-13b-13b-13----13~---|
G|14~--12----12-14----12--------------------------------------14-------|
D|--------15-------15----12-12-----------------------------------------|
A|---------------------------------------------------------------------|
E|---------------------------------------------------------------------|

e|-------------------------------------------------------------------|
B|13b-13-------------------------15~------13~------------------------|
G|-------14-12----12~-14-12------------------------12pb(14)-12-12hb--|
D|-------------15-----------15~--------------------------------15b---|
A|-------------------------------------------------------------------|
E|-------------------------------------------------------------------|

then

Guitar 1

e|| ---------------------- || |----------|
B||:----------------------:|| |----------|
G|| 12b--------10--12----- || |12b-------|
D|| 12b-10-12--10--12--12~ || |12b-10-12-|
A||:-------12-------------:|| |-------12-|
E|| ---------------------- || |----------|

Guitar 2

e|-------------------|| --------------- || |--------|
B|-------------------||:---------------:|| |--------|
G|-------------------|| --------------- || |--------|
D|<---pick scrape--->|| --------------- || |--------|
A|-------------------||:5---5-5--5-5-5-:|| |3---5---|
E|-------------------|| --------------- || |1---3---|

finally

Guitar 1
                      <
e|-------------------|----|
B|-------------------|----|
G|-------------------|2---|
D|3----3t--3t-3t--3t-|2---|
A|-------------------|0---|
E|-------------------|----|

Guitar 2

e|----------------------|----------------|
B|----------------------|----------------|
G|--------------------0-|----------------|
D|<---pick scrape--->---|----------------|
A|----------------------|<-pick scrape->-|
E|----------------------|----------------|

There, that wasn't so difficult, was it now, Voytazz?
Comments