Ac Dc - Furor Chords & Tabs

 

Furor Chords & Tabs

Ac Dc Chords & Tabs

Version: 1 Type: Tab 0 ratings
1 star 2 stars 3 stars 4 stars 5 stars
comments

Furor Tab

AC/DC The Furor
written by A.Young, M. Young
From the 1995 Ballbreaker album.
Tab by Voytazz
Gtr 1 (Angus)
Gtr 2 (Malcolm)
Key:
3p0 - pull off
x2 - repeat 
///-slide
~-vibrato


Intro
Gtr 1 (Angus)
e---------------------------------------------------|
b--------3-3--------------------3-3-----------------|
g--------2-2--------------------2-2-----------------|
d--3p0-0-0-0--3p0--0------3p0-0-0-0--3p0--0---------| 
a--------------------0-3--------------------0-3-----|
e---------------------------------------------------|
then...
_____________________________________________________
Gtr 1 ( Angus)
e---------------------------------------------------|
b--------3-3--------------------3-3-----------------|
g--------2-2--------------------2-2-----------------|
d--3p0-0-0-0--3p0--0------3p0-0-0-0--3p0--0---------| 
a--------------------0-3--------------------0-3-----|
e---------------------------------------------------|When Angus is starting
Gtr 2 (Malcolm)                                     that riff, Mal hits
e-------|                                                  <----
b--3----|
g--2----|                                            |
d--0----|                                            |
a-------|                                            |
e-------|                                            |
_____________________________________________________|

then...  
________________________________________________________________
Gtr 1 (Angus)                                                   |
e---------------------------------------------------|           |
b--------3-3--------------------3-3-----------------|           |
g--------2-2--------------------2-2-----------------|           |
d--3p0-0-0-0--3p0--0------3p0-0-0-0--3p0--0---------|           | 
a--------------------0-3--------------------0-3-----|           |
e---------------------------------------------------|Repeat     |
Gtr 2 (Malcolm)                                     that 1&2 Gtr|
e--5----------3-----------1-------------------------| part      |
b--5----------3-----------1-------------------------| x3        | 
g--7----------5-----------3-------------------------|           |
d--7----------5-----------3-------------------------|           |
a--5----------3-----------1-------------------------|           |
e--5----------3-----------1-------------------------|           |
________________________________________________________________|                               

_____________________________________
Then is something like bridge.        |
Gtr 1(Angus)                          |
e---------------------------------|   |
b----3-3----3-3----3-3----3-3-----|   |
g--2-2-2--2-2-2--2-2-2--2-2-2-----|   |
d--0-0-0--0-0-0--0-0-0--0-0-0-----|   |
a---------------------------------|   |
e---------------------------------|   |
  Gtr 2 (Malcolm)    That part      x1|
e----------------------------------|  |
b----------------------------------|  |
g----------------------------------|  |
d--5-------------5-5-5-5-5-5-5-5-5-|  |
a--5-------------5-5-5-5-5-5-5-5-5-|  |
e--3-------------3-3-3-3-3-3-3-3-3-|  |
______________________________________|
Then goes...

_________________________________________
Riff 1                                  |
Gtr 1 (Angus)                           |
e---------------------------------|     |
b----3-3----3-3----3-3----3-3-----|     |
g--2-2-2--2-2-2--2-2-2--2-2-2-----|     |
d--0-0-0--0-0-0--0-0-0--0-0-0-----|     | 
a---------------------------------|     |
e---------------------------------|     |
                                    x3  |
Gtr 2 (Malcolm)                         |            
e--5------3------1----------------|     | 
b--5------3------1----------------|     |   
g--7------5------3----------------|     |      
d--7------5------3----------------|     |      
a--5------3------1----------------|     |      
e--5------3------1----------------|     |
________________________________________|
then...
_________________________________________
Riff 2                                  |
Gtr 1 (Angus)                           |
e---------------------------------|     |
b----3-3----3-3----3-3-3----------|     |
g--2-2-2--2-2-2----2-2-2----------|     |
d--0-0-0--0-0-0----0-0-0-0-0------|     | 
a------------------------0-0------|     |
e------------------------3-2------|     |
Gtr 2 (Malcolm)                     x1  |
e---------------------------------|     |
b---------------------------------|     |
g---------------------------------|     |
d--5--------------5-5-5--5-4------|     |
a--5--------------5-5-5--5-4------|     |
e--3--------------3-3-3--3-2------|     |
________________________________________|

[ Tab from: http://www.guitartabs.cc/tabs/a/ac_dc/furor_tab.html ]
________________________________________
Verse 
Gtr 1 (Angus)                           |
e---------------------------------|     |
b----3-3----3-3----3-3----3-3-----|     |
g--2-2-2--2-2-2--2-2-2--2-2-2-----|     |
d--0-0-0--0-0-0--0-0-0--0-0-0-----|     | 
a---------------------------------|     |
e---------------------------------|     |
                                    x3  |
Gtr 2 (Malcolm)                         |            
e--5------3------1----------------|     | 
b--5------3------1----------------|     |   
g--7------5------3----------------|     |      
d--7------5------3----------------|     |      
a--5------3------1----------------|     |      
e--5------3------1----------------|     |
________________________________________|
Then...
_________________________________________
Bridge 2                                |
Gtr 1 (Angus)                           |
e---------------------------------|     |
b----3-3----3-3----3-3----3-3-----|     |
g--2-2-2--2-2-2--2-2-2--2-2-2-----|     |
d--0-0-0--0-0-0--0-0-0--0-0-0-----|     | 
a---------------------------------|     |
e---------------------------------|     |
Gtr 2 (Malcolm)                         |
e---------------------------------|     |
b---------------------------------|     |
g---------------------------------|     |
d--5--------------5-5-5-----------|     |
a--5--------------5-5-5-----------|     |
e--3--------------3-3-3-----------|     |
  "bringing order from the boss"        |
________________________________________| 
then...
________________________________________
Verse 
Gtr 1 (Angus)                           |
e---------------------------------|     |
b----3-3----3-3----3-3----3-3-----|     |
g--2-2-2--2-2-2--2-2-2--2-2-2-----|     |
d--0-0-0--0-0-0--0-0-0--0-0-0-----|     | 
a---------------------------------|     |
e---------------------------------|     |
                                    x3  |
Gtr 2 (Malcolm)                         |            
e--5------3------1----------------|     | 
b--5------3------1----------------|     |   
g--7------5------3----------------|     |      
d--7------5------3----------------|     |      
a--5------3------1----------------|     |      
e--5------3------1----------------|     |
________________________________________|
Then
_________________________________________
Bridge to chorus                        |
Gtr 1 (Angus)                           |
e---------------------------------|     |
b----3-3----3-3----3-3----3-3-----|     |
g--2-2-2--2-2-2--2-2-2--2-2-2-----|     |
d--0-0-0--0-0-0--0-0-0--0-0-0-----|     | 
a---------------------------------|     |
e---------------------------------|  x1 |
Gtr 2 (Malcolm)                         |
e---------------------------------|     |
b---------------------------------|     |
g---------------------------------|     |
d--5--------------5-5-5------5-5--|     |
a--5--------------5-5-5------5-5--|     |
e--3--------------3-3-3------3-3--|     |
  "on the killin' floor"                |
________________________________________|
then...
_________________________________________________
Chorus                                           |
Gtr 1 (Angus)                                    |
e---2-2-2-2-2-5-5-5-5-5-7-7-7-7-7-5-5-5-5-5-|    |
b---3-3-3-3-3-6-6-6-6-6-8-8-8-8-8-6-6-6-6-6-|    |
g---2-2-2-2-2-5-5-5-5-5-7-7-7-7-7-5-5-5-5-5-|    |
d-------------------------------------------|    |
a-------------------------------------------|    |
e-------------------------------------------|    |
...Furor"                                     x2 |
e-------------------------------------------|    |
b-------------------------------------------|    |
g---3---------5---------7---------5---------|    |
d---3---------5---------7---------5---------|    |
a---1-------1-3-------3-5-------5-3---------|    |
e-------------------------------------------|    |
_________________________________________________|
Then Angus hits mini solo...(Malcolm Plays Angus' Intro part)
e--------------------------|
b--------------------------|
g----------7p5-------------|
d---5~----------8-5~-------|
a--------------------------|
e--------------------------|

 Verse x3
 Bridge to Chorus x1
 Chorus x4
Then Angus hits a pre-solo...
e---------------------------------------------------------------|
b--7p5------------7p5------------7p5------------7p5-------------|
g--7p5------------7p5------------7p5------------7p5-------------|
d------7p5-3-5-0------7p5-3-5-0------7p5-3-5-0------7p5-3-5///--|
a---------------------------------------------------------------|
e---------------------------------------------------------------|
When Angus plays a pre-solo Malcolm hits...
e---------------------------------------------------------------|
b---------------------------------------------------------------|
g----------5-7-2----------5-7-2----------5-7-2----------5-7//---|
d----------5-7-2----------5-7-2----------5-7-2----------5-7//---|
a----------3-5-0----------3-5-0----------3-5-0----------3-5//---|
e---------------------------------------------------------------|
Solo ? i didnt know yet...
(during solo Malcolm plays his part of Verse, then he change it for the Angus' Intro part)
Then Chorus x4
Solo2 (Malcolm Plays Chorus)
After the solo 
Guitar 1 and 2 make a slide
Then Angus and Malcolm Plays the pre-solo part
Outro
e-------------------------|
b-------------------------|
g----------5---------7/---|
d----------5Let-ring-7/---|
a----------3---------5/---|
e-------------------------|
"Im your FUROR!"

Tab by Voytazz
I was very angry that i didnt found the furor tab in the internet, so I tabbed that
kick ass-song and i think that is 100% correct , i will post the solos...
Check for Voytazz tabs.
If i missed or faild something please mail me wojciechtkocz@interia.pl
AC/DC kicks ass...
Comments