Ac Dc - For Those About To Rock We Salute You Chords & Tabs

 

For Those About To Rock We Salute You Chords & Tabs

Ac Dc Chords & Tabs

Version: 1 Type: Tab 6 ratings
1 star 2 stars 3 stars 4 stars 5 stars
comments

For Those About To Rock We Salute You Tab

   
STANDARD TUNING

b=bend 
r=release 
hb=hold bend 
~=Hand Vibrato
                                          
e||--11-11-11-11-11-11-11-11-|11-11-11-11-11-11-11-11-|10-10-10-10-10-10-14-14-|
b||--12-12-12-12-12-12-12-12-|12-12-12-12-12-12-12-12-|12-12-12-12-12-12-12-12-|
g||*-11-11-11-11-11-11-11-11-|11-11-11-11-11-11-11-11-|11-11-11-11-11-11-11-11-|
D||*-------------------------|------------------------|------------------------|  4X
A||--------------------------|------------------------|------------------------|
E||--------------------------|------------------------|------------------------|
  
e|14-12-12-12-12-12-12-12--||
b|12-12-12-12-12-12-12-12--||
g|11-11-11-11-11-11-11-11-*||
D|------------------------*||
A|-------------------------||
E|-------------------------||

e|------------------|------------------|------------------|------------------|
b|------------------|------------------|------------------|------------------|
g|-4----------------|--------------0---|-2--------1-------|------------------|
D|-4----------------|-----------0------|-0--------2-------|------------------|
A|-2----------------|------------------|----------2-------|------------------|
E|------------------|--------3---------|-2-----x--0-------|------------------|

e|------------------|------------------|-3----------------|------------------|
b|------------------|------------------|-3-----3----------|------------------|
g|-4----------------|------------------|-0-----2------1---|------------------|
D|-4----------------|------------------|-0-----0------2---|------------------|
A|-2----------------|------------------|--------------2---|------------------|
E|------------------|------------------|-3-----2------0---|------------------|

e|------------------|------------------|------------------|------------------|
b|------------------|------------------|------------------|------------------|
g|-4-----4----------|--------------0---|------------------|------------------|
D|-4-----4----------|-----------0------|-------0--2-------|------------------|
A|-2-----0----------|------------------|----0-----2-------|------------------|
E|------------------|--------3---------|-2--------0-------|------------------|

e|------------------|------------------|-3----------------|------------------|
b|------------------|------------------|-3-----3----------|------------------|
g|-4-----4----------|------------------|-0-----2-------1--|------------------|
D|-4-----4----------|------------------|-0-----0-------2--|------------------|
A|-2-----0----------|------------------|---------------2--|------------------|
E|------------------|------------------|-3-----2----------|------------------|

e|--12-12-12-12-12-12-12-12-|--12-12-12-12-12-12-12-12-|
b|--12-12-12-12-12-12-12-12-|--12-12-12-12-12-12-12-12-|
g|--11-11-11-11-11-11-11-11-|--11-11-11-11-11-11-11-11-|
D|--------------------------|--------------------------|
A|--------------------------|--------------------------|
E|--------------------------|--------------------------|

e|-------------|----3----|---------|--------0----------|
b|-------------|----3----|--3------|--------0--0-------|
g|-4----4------|----0----|--2--1---|--0-0-0-0----------|
D|-4----4------|----0----|--0--2---|--2-0-2----2-------|
A|-2----0------|---------|-----2---|-------------------|
E|-------------|----3----|--2--0---|-------------------|

e|-------------|----3----|---------|--------7-7-7------|
b|-------------|----3----|--3------|--------7-7-7------|
g|-4----4------|----0----|--2--1---|--------------0----|
D|-4----4------|----0----|--0--2---|--2/-9-------------|
A|-2----0------|---------|-----2---|-----------------0-|
E|-------------|----3----|--2--0---|-------------------|

e|-----------|-------------------|--------|--3---------|
b|4/------3-3|3-3-----2-----2----|--------|--3---------|
g|4/------2-2|2-2-----2-----2--1-|--------|--0-----1---|
D|4/------4-4|4-4-----2-----2--2-|--------|--0-----2---|  3 x
A|2/------0-0|0-0-----0-----0--2-|--------|--------2---|
E|-----------|-----------------0-|--------|--3-----0---|

e|--------------------------------------------------------|--------------------|
b|-10-(12)-------------(12)--(12)--(12)--(12)--(12)--(12)-|(12)-(12)-(12)-(12)-|
g|--------------------------------------------------------|--------------------|
D|--------------------------------------------------------|--------------------|
A|--------------------------------------------------------|--------------------|
E|--------------------------------------------------------|--------------------|
                                    
e|----------------------------------|------------------5----------------------|
b|(12)-(12)-(12)-(12)-(12)-(12)-\---|8-10--8-10----------8--5---5-------------|
g|-------------------------------\--|-------------------------8---8--7--5-----|
D|----------------------------------|-------------------------------------7-\-|
A|----------------------------------|----------------------------------------\|
E|----------------------------------|-----------------------------------------|
[ Tab from: http://www.guitartabs.cc/tabs/a/ac_dc/for_those_about_to_rock_we_salute_you_tab.html ]
e|----------------------------------------------5-----------5------------5----|
b|--------------------------------------------5---8-5-----5---8--5-----5---8-5|
g|--------------------7-9--7--5--7--------7-9---------7-9----------7-9--------|
D|5----x----7\----------------------------------------------------------------|
A|----------------------------------------------------------------------------|
E|----------------------------------------------------------------------------|
                    
e|------5-----------5-------5-------------10----8--9--8-----------------------|
b|----5---8-5-----5---8-5-----7-8---7-------------------10-----12-13-12-10--12|
g|7-9---------7-9---------7---7-8---7-----------------------------------------|
D|----------------------------------------------------------------------------|
A|----------------------------------------------------------------------------|
E|----------------------------------------------------------------------------|
   
e|---------------------------12---12---12----\--------------------------------|
b|-13-12-13------12-12-14---------12---14----\---/13-15-17--13-13-15-13-10--13|
g|----------------------------------------------------------------------------|
D|----------------------------------------------------------------------------|
A|----------------------------------------------------------------------------|
E|----------------------------------------------------------------------------|
  
e|----------------------------------------------------------------------------|
b|-15--13-15--13-15--13-15--13-15--13-15-----------10-12-13-12-10--------10---|
g|-------------------------------------------------------------------/11------|
D|----------------------------------------------------------------------------|
A|----------------------------------------------------------------------------|
E|----------------------------------------------------------------------------|
     
e|-------------------12-------------------------------------------------------|
b|10-------10--\--12-13-8--8---------------------------------20-22-20-22-20-22|
g|---12-14-----------------------9-7-5-7------5-------------------------------|
D|----------------------------------------------7--7--7--\--------------------|
A|----------------------------------------------------------------------------|
E|----------------------------------------------------------------------------|

e|---------------------------------------|
b|---------8------8------8-----5---------|
g|------10-12--10-12--10-12--7-9------4--|
D|------------------------------------4--|
A|------------------------------------2--|
E|---------------------------------------|

e|---------------------------------------|
b|---------8-------8------7------5-------|
g|------10-12---10-12---9-11---7-9----4--|
D|------------------------------------4--|
A|------------------------------------2--|
E|---------------------------------------|
    
e|---------10-------10-----14-----12-----------------10-----10-----10-----10--|
b|------13-15----13-15--17-19--15-17--------------13-15--13-15--13-15--13-15--|
g|------------------------------------4---------------------------------------|
D|------------------------------------4---------------------------------------|
A|------------------------------------2---------------------------------------|
E|----------------------------------------------------------------------------|
      
e|---10-----9------9------9------9------9-\-----7----7---7---7------7--7--7-|
b|13-15--12-14--12-14--12-14--12-14--12-14\--10-12--12--12--12--10-12-12-12-|
g|--------------------------------------------------------------------------|
D|--------------------------------------------------------------------------|
A|--------------------------------------------------------------------------|
E|--------------------------------------------------------------------------|
  
e|----7---------------------------------------------------------------7------7|
b|10-12-\------8------8-----7----5----5\--------------------------10-12--10-12|
g|---------10-12--10-12--9-11--7-9--7-9\---4------\-4-----4---4---------------|
D|----------------------------------------------------------------------------|
A|----------------------------------------------------------------------------|
E|----------------------------------------------------------------------------|

e|---10-----12-\-|       
b|13-15--15-17-\-|
g|---------------|
D|---------------|
A|---------------|
E|---------------|

e||-----------------|--|------------------|------|---------------------|--------|
b||-----------------|--|10-12---12-10-12\-|------|---------------------|--------|
g||*-9-11--11-9-11--|--|------------------|------|-9-11---11--9--11 ---|--------|
D||*----------------|--|------------------|------|---------------------|--------|
A||-----------------|--|------------------|------|---------------------|--------|
E||-----------------|--|------------------|------|---------------------|--------|
 
e|----|------------------------||
b|-10-|-10-12-12-12-10-12\-----||
g|----|-----------------------*||
D|----|-----------------------*||
A|----|------------------------||
E|----|------------------------||

e|-----------------------------------------------7----------------------------|
b|12-10-12--10-12-10-12-10-12-10-12-10-12----------10-7---7-------------------|
g|------------------------------------------------------9---9--7--------------|
D|---------------------------------------------------------------9-----\------|
A|----------------------------------------------------------------------------|
E|----------------------------------------------------------------------------|

e|----------7-----------------------------------------------------------------|
b|------------10-7-10-7-6-7-6-------------------------------------------------|
g|9-11------------------------9-7-7-------------------------------------------|
D|----------------------------------9-----9---7\------------------------------|
A|------------------------------------7-9---9---\-----------------------------|
E|----------------------------------------------------------------------------|

e|----------------------------------------------------------------------------|
b|--10-12-12-12------10-12-12-12-12-------10-12-12-10-12----15-17-15-17-------|
g|----------------------------------------------------------------------------|
D|----------------------------------------------------------------------------|
A|----------------------------------------------------------------------------|
E|----------------------------------------------------------------------------|

e|12---------------------------------------17-------17-------17-------17------|
b|---12-15--17-19-17-19--19----17-15-17-19----17-19----17-19----17-19----17-19|
g|----------------------------------------------------------------------------|
D|----------------------------------------------------------------------------|
A|----------------------------------------------------------------------------|
E|----------------------------------------------------------------------------|

e|17---------17-------17--------------------------------------------15-17-----|
b|---17-19------17-19----17-19-17-19----19-17-15----17-15--------12-----------|
g|-----------------------------------------------16-------16---14-------------|
D|----------------------------------------------------------------------------|
A|----------------------------------------------------------------------------|
E|----------------------------------------------------------------------------|

e|-14-12-------12-14-12------------17-----------------------------------------|
b|-------15-15----------15-17-19-------19--19--19-19-19-19-19-17-17-15--------|
g|----------------------------------------------------------------------------|
D|----------------------------------------------------------------------------|
A|----------------------------------------------------------------------------|
E|----------------------------------------------------------------------------|

e|17-19---17-19---------------17-19--17-14-17-19---17-19--------------22-24---|
b|----------------17-19---17------------------------------17-19--17-----------|
g|----------------------------------------------------------------------------|
D|----------------------------------------------------------------------------|
A|----------------------------------------------------------------------------|
E|----------------------------------------------------------------------------|

e|22--19--------------------------------------|
b|-------22-24--22-24------15-----14-----10---|
g|----------------------17-19--16-18--12-14---|
D|--------------------------------------------|
A|--------------------------------------------|
E|--------------------------------------------|

e|--------------------------------------------|
b|---------3---3------------------------------|
g|-4---2---0---2---1----------------4/--------|
D|-4---2---0---0---2----------------4/--------|
A|-2---0-----------2----------------2/--------|
E|---------3---2---0--------------------------|
Comments