Ac Dc - For Those About To Rock Chords & Tabs

 

For Those About To Rock Chords & Tabs

Ac Dc Chords & Tabs

Version: 3 Type: Tab 0 ratings
1 star 2 stars 3 stars 4 stars 5 stars
comments

For Those About To Rock Tab

Intro:
I fuigured this out (even the solo)so its not perfect but it sounds right
    Gtr. I
    Reapeat Throughout intro
E|-------11-------11-------11-------11--------------|
B|-12-12-12-12-12-12-12-12-12-12-12-12-12-12-12-12--|
G|-11-11-11-11-11-11-11-11-11-11-11-11-11-11-11-11--|
D|--------------------------------------------------|
A|--------------------------------------------------|
E|--------------------------------------------------|

E|-------10-------10-------14----14-12----12--------|
B|-12-12-12-12-12-12-12-12-12-12-12-12-12-12-12-12--|
G|-11-11-11-11-11-11-11-11-11-11-11-11-11-11-11-11--|
D|--------------------------------------------------|
A|--------------------------------------------------|
E|--------------------------------------------------|

 Gtr. II
E|-------------------------|-------------------------|
B|-------------------------|-------------------------|
G|--4------2---------------|--4-4----2---------------|
D|--4------2-----5--2------|--4-4----2-----5--2------|
A|--2------0-2---5--2------|--2-2----0-2---5--2------|
E|---------------3--0------|---------------3--0------|

E|-------------------------|-------------------------|
B|-------------------------|-------------------------|
G|--4-2-------0----0-------|--4-2-------0----0-------|
D|--4-2------0----0----2---|--4-2------0----0----2---|
A|--2-0----------------2---|--2-0----------------2---|
E|---------3----2------0---|---------3----2------0---|

  Gtr I and Drums for moment then Gtr I Stops

 Gtr II
E|-------------------------|-------------------------|
B|-------------------------|-------------------------|
G|--4-2-------0----0-------|--4-2-------0----0-------|
D|--4-2------0----0----2---|--4-2------0----0----2---|
A|--2-0----------------2---|--2-0----------------2---|
E|---------3----2------0---|---------3----2------0---|
 Yeah Yea!  Ooooh noooo!     Yeaha!  No No No!
 
E|-------------------------|-------------------------|
B|-------------------------|-------------------------|
G|--4-2-------0----0-------|--4-2-------0----0-------|
D|--4-2------0----0----2---|--4-2------0----0----2---|
A|--2-0----------------2---|--2-0----------------2---|
E|---------3----2------0---|---------3----2------0---|
 We Roll Tonight!            Yeahea!       Listen
 To the Guitar Bite!


  Verse:
  Repeat throughout verse
E|-------------------------|-------------------------|
B|-------------------------|-------------------------|
G|-------------------------|-------------------------|
D|-9-9/12-XX-X--7-7/9-XX-X-|-7---------5--2----------|
A|-9-9/12-XX-X--7-7/9-XX-X-|-7---------5--2----------|
E|-7-7/10-XX-X--5-5/7-XX-X-|-5---------3--0----------|


   Stand up and be counted for what you are about to recive
   We are the dealers, we'll give you everything you need
   Hail, hail to the good times
   Cause rock has got the right of way
   We ain't no legend, ain't no cause
   We're just livin' for today


  Chorus:

E|-------------------------|-------------------------|
B|-------------------------|-------------------------|
G|--4-2-------0----0-------|--4-2-------0----0-------|
D|--4-2------0----0----2---|--4-2------0----0----2---|
A|--2-0----------------2---|--2-0----------------2---|
E|---------3----2------0---|---------3----2------0---|

   For those about to rock, we salute you
   For those about to rock, we salute you

Pause for Drums
Verse II:
   We rock at dawn on the front line
   Like a bolt right outta the blue
   The sky's alight with a guitar bite
   Heads will roll and rock tonight

Chorus:
   For those about to rock, we salute you
   For those about to rock, we salute you
   For those about to rock, we salute you, yes we do
   For those about to rock, we salute you, salute
[ Tab from: http://www.guitartabs.cc/tabs/a/ac_dc/for_those_about_to_rock_tab_ver_3.html ]
  Solo:
E|-------------------------------------------------|
B|-------------------------------------------------|
G|--15b17v-15b17-17-17-15b17-17-17-15b17-17-17v----|
D|-------------------------------------------------|
A|-------------------------------------------------|
E|-------------------------------------------------|

E|-------------------------------------------------|
B|-------------------------------------------------|
G|--15b17v-16-15p13p12-----------------------------|
D|----------------------15p13p12-12b13v--12-13/15--|
A|-------------------------------------------------|
E|-------------------------------------------------|

E|------------------------|
B|------------------------|
G|-16b18-14-16-16---13-15-|
D|------------------------|
A|------------------------|
E|------------------------|

E|-------------------------------------------------------------------|
B|---15p13------15p13-----15p13-----15p13------15p13-13h15-15b16--13-|
G|---15p13------15p13-----15p13-----15p13------15p13-13h15-15b16--13-|
D|---------13h15-----13h15-----13h15-----13h15-----------------------|
A|-------------------------------------------------------------------|
E|-------------------------------------------------------------------|

E|-------------------------------------------------------------------|
B|-------------------------------------------------------------------|
G|--13-15-17---13-15-17b18-15----------------------------------------|
D|------------------------------12-13-15b17-12-13--------------------|
A|------------------------------------------------12-15-17-12-17-12--|
E|-------------------------------------------------------------------|

E|-------------------------------------------------------------------|
B|--13-15h17b19------------------------------------------------------|
G|-----------------17b18--17-17p16-13-13----13-15-15-17p15-13--------|
D|-------------------------------------------------------------------|
A|-------------------------------------------------------------------|
E|-------------------------------------------------------------------|

E|-------------------------------------------------------------------|
B|-------------------------------------------------------------------|
G|-12-13/15---12-13b15---16bv-15p13--13-15-15b-15p13-13-13-13-13-----|
D|-------------------------------------------------------------------|
A|-------------------------------------------------------------------|
E|-------------------------------------------------------------------|

E|-------------------------20-21b13-13-13----------------------------|
B|-------------------------------------------------------------------|
G|--13-15b-----------------------------------------------------------|
D|---------16p15p13-13-----------------------------------------------|
A|-------------------------------------------------------------------|
E|-------------------------------------------------------------------|

Verse III:
We're just a battery for hire with the guitar fire
Ready and aimed at you
Pick up your balls and load up your cannon
For a twenty one gun salute

Last Chorus:

E|-------------------------------------------------------------------|
B|-------------------------------------------------------------------|
G|-------------------------------------------------------------------|
D|--------------------------------5--4--0---3------------------------|
A|--------------------------------5--4--0---3------------------------|
E|--------------------------------3--2--2---0------------------------|
 For Those About to Rock,  Fire!  We Sa-lute You!


For those about to rock
We salute you
For those about to rock, fire
We salute you
Fire
We salute you
We salute you, c'mon
For those about to rock, we salute you
For those about to rock, we salute you
For those about to rock, we salute you
For those about to rock, we salute you
Shoot, shoot
Shoot, shoot
For those who give
For those who take
For those on the line, and those on the make, we salute you
We salute you, we salute you
We salute you
Fire!
Comments