Ac Dc - Fling Thing Chords & Tabs

 

Fling Thing Chords & Tabs

Ac Dc Chords & Tabs

Version: 1 Type: Tab 0 ratings
1 star 2 stars 3 stars 4 stars 5 stars
comments

Fling Thing Tab

Fling Thing


 ---
 ---
 -0-
 ---
 -3-
 ---

 -------------------------------------------------------|
 -------------------------------------------------------|
 ---0-2p0-0-4p0-0-2p0-0-4p0-0-2p0-0-4p0-0-2p0--2p0------|
 --------------------------------------------------0h2--|
 -------------------------------------------------------|
 -------------------------------------------------------|
[ Tab from: http://www.guitartabs.cc/tabs/a/ac_dc/fling_thing_tab.html ]
 -----------------------------------------------------------------------------------------------|
 ------------------------------------3-5--3--3-5-5-3-0-0-3-1-0----------------3-5-5-3-0---------|
 -0-0-2-4-4-2-0-0----------0-0-2-4-4----------------------------2-0-0-----0-0-----------2-4-2-0-|
 -----------------2-0-0--2---------------------------------------------2------------------------|
 -----------------------------------------------------------------------------------------------|
 -----------------------------------------------------------------------------------------------|


 The rest just repeats from there
Comments