Ac Dc - Flick Of The Switch Chords & Tabs

 

Flick Of The Switch Chords & Tabs

Ac Dc Chords & Tabs

Version: 3 Type: Tab 0 ratings
1 star 2 stars 3 stars 4 stars 5 stars
comments

Flick Of The Switch Tab

tuning:standard
tabbed by:a crazy teenage rock and roll fan
artist:acdc
song:flick of the switch
album:flick of the switch
year:1983

ok, i think this tab is way more accurate than the other one.
this one may not be perfect but it sounds better.

key to tab:
p=pull off
h=hammer on
\=slide down
/=slide up
~=vibrato
==let ring
b=bend (release just before next note is played)

intro.
E|--------------------------------------------------------|
B|--------------------------------------------------------|
G|-2---5---7-----------------2---5---7===-----------------|
D|-2---5---7-----------------2---5---7===-----------------|
A|-0---3---5-----------2-3-2-0---3---5===-----------2-3-2-|
E|-------------0-2-3-4----------------------0-2-3-4-------|

main riff. (same as intro)
E|---------------------------|
B|---------------------------|
G|-2---5---7-----------------|
D|-2---5---7-----------------|
A|-0---3---5-----------2-3-2-|
E|-------------0-2-3-4-------|
repeat this for all verses.

pre-chorus.
E|----------------------------------|
B|----------------------------------|
G|-7========----0-----0-----0-----0-|
D|-7========----2-----2-----2-----2-|
A|-5========0-3---0-3---0-3---0-3---|
E|----------------------------------|
[ Tab from: http://www.guitartabs.cc/tabs/a/ac_dc/flick_of_the_switch_tab_ver_3.html ]
chorus.
E|--------------------------------------------------|
B|--------------------------------------------------|
G|--------------------------------------------7-8-7-|
D|-5-2--2----------------------5-2--2---------7-8-7-|
A|-3-0--0--0-3-5---5-3-5b5-3---3-0--0--0-3-5--5-6-5-|
E|--------------------------------------------------|
play this twice for the chorus

repeat the verse and chorus again

guitar solo.
guitar two will play the main riff over the solo
solo.
E|---------------------------------------------------|
B|--------------------7b--5--7-5---10~~~~~~~~10------|
G|----------7===-----------------7-------------------|
D|-7========------------------------------------10-7-|
A|--------------12\----------------------------------|
E|---------------------------------------------------|

E|---------------------------------------|
B|-10---9-8-9-8-10p9p8------7--7----8b===|
G|---------------------7-10------7-------|
D|---------------------------------------|
A|---------------------------------------|
E|---------------------------------------|

E|----------------12/17-|
B|-8/10-8/10-8/13-------|
G|----------------------|
D|----------------------|
A|----------------------|
E|----------------------|

E|-17p15----17p15----17-15-----------------------|
B|-------17-------17-------17-15h17--15-13-15-10-|
G|-----------------------------------------------|
D|-----------------------------------------------|
A|-----------------------------------------------|
E|-----------------------------------------------|

E|-------22-------22--------------------------|
B|-24-24----24-24-------------10-10-10========|
G|--------------------------------------------|
D|--------------------------------------------|
A|-------------------5-5-5====----------------|
E|--------------------------------------------|
then just play the chorus again.

there you are.
Comments