Ac Dc - Fire Your Guns Chords & Tabs

 

Ac Dc Chords & Tabs

Version: 1 Type: Tab 0 ratings
1 star 2 stars 3 stars 4 stars 5 stars
comments

Fire Your Guns Tab

   
Tableture Legend:
h- hammer on

Tuning: E,A,D,G,B,E

|----------------------|----------------------|
|----------------------|----------------------|
|----------------------|----------------------| Riff 1
|-2-2-2-2-2-2-2-2--2-2-|-2-2-2-2-2-2-2-2--2-2-|
|-0-0-0-3-0-0-0-0--3-0-|-0-0-0-3-0-0-0-0--3-0-|
|----------------------|----------------------|

|------------|------------|------------|------------|
|------------|------------|------------|------------|
|-7--5-5-5-2-|-7--5-5-5-2-|-7--5-5-5-2-|-7--5-5-5-2-| Riff 2
|-7--5-5-5-2-|-7--5-5-5-2-|-7--5-5-5-2-|-7--5-5-5-2-|
|-5--3-3-2-0-|-5--3-3-2-0-|-5--3-3-2-0-|-5--3-3-2-0-|
|------------|------------|------------|------------|
[ Tab from: http://www.guitartabs.cc/tabs/a/ac_dc/fire_your_guns_tab.html ]
|----------------------3-|
|----------------------3-|
|-9--7--7--5--5--5--2--0-| Riff 3 (back to riff 1)
|-9--7--7--5--5--5--2--0-|
|-7--5--4--3--3--2--0--0-|
|----------------------3-|

|----------------------|----------------------|
|----------------------|----------------------|
|----------------------|----------------------| Play during solo
|-2-2-2-2-2-2-2-2--2-2-|-2-2-2-2-2-2-2-2--2-2-|
|-0-0-0-3-0-0-0-0--3-0-|-0-0-0-3-0-0-0-0--3-0-|
|----------------------|----------------------|

Sorry I couldn't get the lead solo

Order 

Riff 1 8x
Riif 2 4x
Riff 3 1x
Solo
Riff 1 8x
Riff 2 4x
Outro Jamming

|---|
|---|
|-2-| Play this chord during the Outro
|-2-|
|-0-|
|---|              Fire Your Guns


Tabbed by: Speedy D
Tabbed: 11/30/04
Band: ACDC
Song: Fire Your Guns
Comments