Ac Dc - Dt Chords & Tabs

 

Dt Chords & Tabs

Ac Dc Chords & Tabs

Version: 2 Type: Tab 0 ratings
1 star 2 stars 3 stars 4 stars 5 stars
comments

Dt Tab



AC DC - DT
From the CD Who Made Who,
And the Maximum Overdrive soundtrack.

Written by : Angus and Malcolm Young
Tabbed by : Adam Parrish (ironmonkey507@hotmail.com)

Tuning : Standard

Intro / Solo Fill
|--------------------------------------||
|--------------------------------------||
|---5--5--3--5/---8-----5--2------------|
|---5--5--3--5/---8--8--------3---------|
|---3--3--3--3/------8------------------|
|--------------------------------------||
[ Tab from: http://www.guitartabs.cc/tabs/a/ac_dc/dt_tab_ver_2.html ]
Pre Main Part
|--------------------||
|--------------------||
|---5--5--3--5--------|
|---5--5--3--5--------|
|---3--3--3--3--------|
|--------------------||

Main Part 
|-------------------------------------------------------||
|-------------------------------------------------------||
|----------5------------------------3--------------------|
|----------5------------3-----------3-----------3--------|
|----------3-----1----- 3-----------1-----------3--------|
|---1--3------------3--1-----1--3-------1--3--1----------|

Order : 
Intro (x4)
Pre Main Part (x4)
Main Part (x2)
Pre Main Part (x3)
Main Part (x2)
Solo Fill (x4)
Pre Main Part (x1)
Solo Fill (x10) (Really quiet)
Comments