Ac Dc - Dirty Deeds Done Dirt Cheap Chords & Tabs

 

Dirty Deeds Done Dirt Cheap Chords & Tabs

Ac Dc Chords & Tabs

Version: 4 Type: Tab 3 ratings
1 star 2 stars 3 stars 4 stars 5 stars
comments

Dirty Deeds Done Dirt Cheap Tab

   
Dirty Deeds Done Dirt Cheap
AC/DC
Questions, comments?  adamoman59@hotmail.com

This version of the song is both easy, and it sounds good

Intro
  Em   G    Em   A   Em   D   Em
-------------------------------------I
--------------------------3---------.I
-------0---------2--------2----------I
--2----0----2----2----2---0---2------I
--2----x----2----0----2-------2-----.I
--0----3----0---------0-------0------I

Verse
  Em      D   Em
------------------------
----------3-------------
----------2-------------
---2------0---2---------
---2----------2---------
---0----------0---------
[ Tab from: http://www.guitartabs.cc/tabs/a/ac_dc/dirty_deeds_done_dirt_cheap_tab_ver_4.html ]
Chorus
   A      A   G   A       Em   Em   D   Em
----------------------I-------------------------------I
----------------------I-------------3-----------------I
---2------2---0---2---I-------------2-----------------I
---2------2---0---2---I---2-----2---0---2-------------I
---0------0---x---0---I---2-----2-------2-------------I
--------------3-------I---0-----0-------0-------------I
   A      A   G   A         Em
----------------------I---------------I
----------------------I---------------I
---2------2---0---2---I---------------I
---2------2---0---2---I-----2---------I
---0------0---x---0---I-----2---------I
--------------3-------I-----0---------I

Have fun with it!
Comments