Ac Dc - Dirty Deeds Done Dirt Cheap Chords & Tabs

 

Dirty Deeds Done Dirt Cheap Chords & Tabs

Ac Dc Chords & Tabs

Version: 3 Type: Tab 1 rating
1 star 2 stars 3 stars 4 stars 5 stars
comments

Dirty Deeds Done Dirt Cheap Tab

 Song: Dirty Deeds Done Dirt Cheap
 Album: Dirty Deeds Done Dirt Cheap
 Artist: AC/DC
 Tabbed By: Scott Dorry (sniperguy4u@yahoo.com)



                         Dirty Deeds Done Dirt Cheap
                                  -AC/DC-



INTRO:
e|----------------------------------|
B|----------------------------------|
G|-----------------------------7----|
D|-2-----5--2-------7--2-------7--2-|
A|-2-----5--2-------7--2-------5--0-|
E|-0-----3--0-------5--0----------0-|



VERSE:
e|---------------|
B|---------------|
G|-7----7/9------|
D|-7----7/9------|
A|-5----5/7------|
E|---------------|



CHORUS:
e|-------------------------------------|
B|-------------------------------------|
G|-2--------------------9------9--7--9-|
D|-2------7--5--7-------9------9--7--9-|
A|-0------7--5--7-------7------7--5--7-|
E|--------5--3--5----------------------|




SOLO KEY:

b   - bend the note a half tone
B   - bend the note a full tone
~~~ - vibrato Angus style
>   - the notes over this symbol should be played with an accent
|   - stands only for part of a music (as far as I identify by listening).
 

SOLO:
e|--------------|--------|------------------------|-----------------|
B|--------------|--------|------------------------|-----10(B)~~~----|
D|--6(b)--6(b)--|--------|-----9(B)---9(B)--9--7--|--7--------------|
G|--------------|--9~~~--|--7---------------------|-----------------|
A|--------------|--------|------------------------|-----------------|
e|--------------|--------|------------------------|-----------------|

[ Tab from: http://www.guitartabs.cc/tabs/a/ac_dc/dirty_deeds_done_dirt_cheap_tab_ver_3.html ]
e|-------------|-----------------------------------|------------------------|
B|--10(B)--10--|-----------------------------------|------------------------|
D|-------------|-----------------------------------|------------------------|
G|-------------|--9--9---9--9--9--9---9--9---9--9--|--9---9---9---9---9--9--|
A|-------------|-----------------------------------|------------------------|
e|-------------|-----------------------------------|------------------------|
                     >            >      >            >           >


e|---------------------|--7-10-7-------------------------------------|
B|---------------------|---------10----10----------------------------|
D|---------------------|------------11----11-9-11-9---9--7-----9--7--|
G|--9---9---7---7---9--|------------------------------------9--------|
A|---------------------|---------------------------------------------|
e|---------------------|---------------------------------------------|
                         

e|--------------------------|
B|--------------------------|
D|--------------------9(B)--|
G|--9--7-----9--9--9--------|
A|--------9-----------------|
e|-----quickly played-------|


These Are All Pull-Off Patterns In Sequences, Keep Them All FLowing...
e|--(8--5--0)---(9--6--0)---(10--7--0)-|-(11--8--0)---(12--9--0)-------|
B|-------------------------------------|-------------------------------|
D|---Repeat each pattern 8 times-------|-From here to the end of the---|
G|-------------------------------------|-sequence repeat 4 times each--|
A|-------------------------------------|-------------------------------|
e|-------------------------------------|-------------------------------|


e|--(13--10--0)---(14--11--0)---(15--12--0)---(16--13--0)---(17--14--0)--|
B|-----------------------------------------------------------------------|
D|-----------------------------------------------------------------------|
G|-----------------------------------------------------------------------|
A|-----------------------------------------------------------------------|
e|-----------------------------------------------------------------------|


e|--(18--15--0)--|--17(B)---|
B|---------------|----------|
D|---------------|----------|
G|---------------|----------|
A|---------------|----------|
e|---------------|----------|






    Okay, That Should Be About It. If You Have Any Comments Or Questions
    Email Me At:  sniperguy4u@yahoo.com
Comments