Ac Dc - Dirty Deeds Done Dirt Cheap Chords & Tabs

 

Dirty Deeds Done Dirt Cheap Chords & Tabs

Ac Dc Chords & Tabs

Version: 11 Type: Tab 0 ratings
1 star 2 stars 3 stars 4 stars 5 stars
comments

Dirty Deeds Done Dirt Cheap Tab

   
                                      www.ac-dc.net
                            "Dirty Deeds Done Dirt Cheap"
                                       by AC/DC
                         submitted by: jonny the homicidal maniac
ok i got this tab from some homo on another site and i switched it around a
little heres how it goes
-turn up your overdrive on this song its better if you have an electric guitar

                       repeat 4 times                         (verse)   
/-----------------------------------------------------\      /-----------------
  (E)               (E)             (E)             (E)           (E)
e|-0-----------------0---------------0---------------0-------------0----------|
b|-0-----------------0-----------0---0-----------3---0--------3-3--0----------|
g|-2-------------0---2-----------2---2-----------2---2--------2-2--2----------|
d|-3-------------0---3-----------2---3-----------0---3--------0-0--3----------|
a|-3-------------0---3-----------0---3-----------0---3--------0-0--3----------|
e|---------------3------------------------------------------------------------|
   1 - 2 - 3 - 4 | 1 - 2 - 3 - 4 | 1 - 2 - 3 - 4 | 1 - 2 - 3 - 4 | 1 - 2 - 3 - 

-put four beats @ the biginning before you start each time

 (verse [cont.])             repeat 4 times
--------------------------------------------------\ 
                                                         (E)    (E)    (E) (E)
e|--------------------------------------------------------0------0------0-----|
b|---------------------------------------------------3-3--0-3-3--0-3-3--0-----|
g|---------------------------------------------------2-2--2-2-2--2-2-2--2-----|
d|---------------------------------------------------0-0--3-0-0--3-0-0--3-----|
a|---------------------------------------------------0-0--3-0-0--3-0-0--3-----|
e|----------------------------------------------------------------------------|
   4 | 1 - 2 - 3 - 4 | 1 - 2 - 3 - 4 | 1 - 2 - 3 - 4 | 1 - 2 - 3 - 4 | 1 - 2 - 
[ Tab from: http://www.guitartabs.cc/tabs/a/ac_dc/dirty_deeds_done_dirt_cheap_tab_ver_11.html ]
 (E) (E) (E) (E) (E) (E) (E)                              
e|----------------------------------------------------------------------------|
b|----------------------------------------------------------------------------|
g|---------------------------------------------------------0------------------|
d|---------------------------------------------------------0------------------|
a|---------------------------------------------------------0------------------|
e|---------------------------------------------------------3------------------|
   3 - 4 | 1 - 2 - 3 - 4 | 1 - 2 - 3 - 4 | 1 - 2 - 3 - 4 | 1 - 2 - 3 - 4 | 1 - 

                                              (intro, but don't repeat) (verse)
e|-------------------------------------------|
b|-------------0-----------------------------|
g|-------------2-----------------------------|
d|-------------2-----------------------------|
a|-------------0-----------------------------|
e|-------------------------------------------|
   2 - 3 - 4 | 1 - 2 - 3 - 4 | 1 - 2 - 3 - 4 |

    -the song has 3 verses and @ the end is another part that is below this
     (intro)(repeat 4 times)

lyrics: If your havin' trouble with your high school head
He's givin' you the blues
You wanna graduate but not in 'is bed
Here's what you gotta do -
Pick up the phone
I'm here alone
Call me any time
36 24 36 (slaver)
I lead a life of crime
Dirty Deeds Done Dirt Cheap
repeat
repeat
repeat
(repeat two times in any strange voice)
Your havin' problems in your life of love
You got a broken heart
He's double dealin' with your best friend
That's when the teardrops start -
Pick up the phone
I'm here alone
Or make a social call
Come right in
Forget about him
We'll have ourselves a ball
Dirty Deeds Done Dirt Cheap
repeat
repeat
repeat
(repeat 2 times in any strange voice)
If you got a lady but you want her gone
But you ain't got the guts
She keeps naggin' you night and day
Enough to drive you nuts -
Pick up the phone
Leave her alone
It's time you made a stand
For a fee I'll be happy to be
Your back door man
Dirty Deeds Done Dirt Cheap
repeat
repeat
repeat
(Spoken:) Concrete shoes, cyanide, TNT
Done Dirt Cheap
Neckties, contracts, high voltage
Done Dirt Cheap
(Sung:)Dirty Deeds Done Dirt Cheap
Dirty Deeds Done Dirt Cheap


 -if you don't like this song you suck for more tabs go to my website:
www.geocities.com/kilroy_tt12/home.html
Comments