Ac Dc - Dirty Deeds Done Dirt Cheap Chords & Tabs

 

Dirty Deeds Done Dirt Cheap Chords & Tabs

Ac Dc Chords & Tabs

Version: 2 Type: Bass Tab 0 ratings
1 star 2 stars 3 stars 4 stars 5 stars
comments

Dirty Deeds Done Dirt Cheap Bass Tab

   
-AC/DC
-BASS
-STANDARD TUNING
-EADG
-tabed by ratbollocks

DIRTY DEEDS DONE DIRT CHEAP.

INTRO                                                                    x4
G-----------------|-----------------|-----------------|------------------||
D.----------------|-----------------|-----------------|-----------------.||
A.----------------|-----------------|-----------------|-----------------.||
E-0-0-0-0-0-0-0-0-|-0-0-0-0-0-0-0-0-|-0-0-0-0-0-0-0-0-|-0-0-0-0-0-0-0-7\-||

VERSE
G-----------------|-----------------|-----------------|-----------------|
D-----------------|-----------------|-----------------|-----------------|
A-----------------|-----------------|-----------------|-----------------|
E-0-0-0-0-0-0-0-0-|-0-0-0-0-0-0-0-0-|-0-0-0-0-0-0-0-0-|-0-0-0-0-0-0-0-0-|

G-----------------|-----------------|------------|
D-----------------|-----------------|------------|
A-----------------|-----------------|------------|
E-0-0-0-0-0-0-0-0-|-0-0-0-0-0-0-0-0-|--------12\-|


CHORUS
G----------------------|-------------------------|-------------------------|
D----------------------|-------------------------|-------------------------|
A-7-7-7-7------7--5--7-|-3/-1-1-1-1------7--5--7-|-3/-7-7-7-7------7--5--7-|
E--------5-7-5---------|-----------5-7-5---------|------------5-7-5--------|

BRIDGE
G---------------------------------------|---------------------------------|
D---------------------------------------|---------------------------------|
A---------------------------------------|---------------------------------|
E-0-0-0-0-0-0-0-0-0-0-0-0-0-0-0-0-0-0-0-|-0-0-0-0-0-0-0-0-0-0-0-0-0-0-0-0-|
 DIRTY DEEDS AND THEYRE DONE DIRT CHEAP

VERSE
CHORUS
BRIDGE
[ Tab from: http://www.guitartabs.cc/tabs/a/ac_dc/dirty_deeds_done_dirt_cheap_btab_ver_2.html ]
SOLO(FAST PACED)
G---------------------|-------------------|-------------------|-------------
D---------------------|-------------------|-------------------|-------------
A-2-2-2-2-2-2-2-2-2-2-|-0-0-0-0-0-0-0-0-0-|-2-2-2-2-2-2-2-2-2-|-0-0-0-0-0-0-
E---------------------|-------------------|-------------------|------------

G-------|-------------------|-------------------|-------------------|-------
D-------|-------------------|-------------------|-------------------|-------
A-0-0-0-|-2-2-2-2-2-2-2-2-2-|-0-0-0-0-0-0-0-0-0-|-2-2-2-2-2-2-2-2-2-|---5-5-
E-------|-------------------|-------------------|-------------------|-0-----
                                                                             x2
G---||-----------------|-----------------|-----------------|--------------||
D---||.----------------|-----------------|-----------------|-------------.||
A-5-||.----------------|-----------------|-----------------|-------------.||
E---||-0-0-0-0-0-0-0-0-|-0-0-0-0-0-0-0-0-|-0-0-0-0-0-0-0-0-|--0-0-0-0-0-0-||

VERSE
CHORUS

INTERLUDE
G-------------------------------|-------------------------------|
D-------------------------------|-------------------------------|
A-------------------------------|-------------------------------|
E-0-0-0-0-0-0-0-0-0-0-0-0-0-0-0-|-0-0-0-0-0-0-0-0-0-0-0-0-0-0-0-|
DIRTY DEEDS AND...........
G-------------------------------|-------------------------------|
D-------------------------------|-------------------------------|
A-------------------------------|-------------------------------|
E-0-0-0-0-0-0-0-0-0-0-0-0-0-0-0-|-0-0-0-0-0-0-0-0-0-0-0-0-0-0-0-|

G|--------------------------------|--------|   |----|
D|.-------------------------------|-------.|   |----|
A|.-------------------------------|-7-5-7-.|   |-9\-|
E|-0-0-0-0-0-0-0-0-0-0-0-0-0-0-0--|--------|x2 |----|
 ...CYANIDE,TNT......
G-----------------|-----------------|-----------------|--------------|
D-----------------|-----------------|-----------------|--------------|
A-----------------|-----------------|-----------------|-5/7--7--5--7-|
E-0-0-0-0-0-0-0-0-|-0-0-0-0-0-0-0-0-|-0-0-0-0-0-0-0-0-|--------------|x5

ahhhhhhhhhhhh!

please rate and comment
Comments