Ac Dc - Deep In The Hole Chords & Tabs

 

Ac Dc Chords & Tabs

Version: 1 Type: Tab 0 ratings
1 star 2 stars 3 stars 4 stars 5 stars
comments

Deep In The Hole Tab

Deep in the hole by AC/DC
Standard Tuning

(Intro and Verse)
E|---------------------|----------------------|
B|---------------------|----------------------|
G|-9---7------6---5----|9---7---6----5-5-5----|
D|-9---7---x--7---5---x|9---7---7----5-5-5----|
A|-7---5---x--4---3---x|7---5---4----3-3-3----|
E|---------------------|--------------------0-|

|----------------------|----------------------|
|----------------------|----------------------|
|-9---7---6----5-5-5---|-9---7---6----5-5-5---|
|-9---7---7----5-5-5---|-9---7---7----5-5-5---|
|-7---5---4----3-3-3---|-7---5---4----3-3-3---|
|---------------------0|---------------------0|

|----------------------|----------------------|----------------------|
|----------------------|--3---3---------------|----------------------|
|9---7---6----5-5-5----|--0---2---------------|5---2---2--5---2---2--|
|9---7---7----5-5-5----|--0---0---2-----------|5---2---2--5---2---2--|
|7---5---4----3-3-3----|------0---2-----------|3---0---0--3---0---0--|
|--------------------0-|--3-------0-----------|----------------------|
[ Tab from: http://www.guitartabs.cc/tabs/a/ac_dc/deep_in_the_hole_tab.html ]
|----------------------|----------------------|----------------------|
|----3---3-------3-----|----------------------|----3---3-------3-----|
|0---2---2--0----2-----|5---2---2--5---2---2--|0---2---2--0----2-----|
|0---0---0--0----0--2--|5---2---2--5---2---2--|0---0---0--0----0--2--|
|----0---0-------0--0--|3---0---0--3---0---0--|----0---0-------0--0--|
|3----------3----------|----------------------|3----------3----------|

|----------------------|----------------------|----------------------|
|----------------------|----3---3-------3-----|----------------------|
|5---2---2--5---2---2--|0---2---2--0----2-----|5---2---2--5---2---2--|
|5---2---2--5---2---2--|0---0---0--0----0--2--|5---2---2--5---2---2--|
|3---0---0--3---0---0--|----0---0-------0--0--|3---0---0--3---0---0--|
|----------------------|3----------3----------|----------------------|

                    to verse:
|----------------------|
|-----3---3-------3----|
|-0---2---2--0----2----|
|-0---0---0--0----0----|
|-----0---0-------0----|
|-3----------3---------|

|----------------------|-----------------------|
|----------------------|-----------------------|
|*9---7---6----5-5-5---|--9---7---6----5-5-5---|
|*9---7---7----5-5-5---|--9---7---7----5-5-5---|
|-7---5---4----3-3-3---|--7---5---4----3-3-3---|
|---------------------0|----------------------0|

|-------------------------|--------------------||
|-------------------------|--3---3-------------||
|--9---7---6----5-5-5-----|--0---2------------*||
|--9---7---7----5-5-5-----|--0---0---2--------*||
|--7---5---4----3-3-3-----|------0---2---------||
|----------------------0--|--3-------0---------||

Thanks, please rate it after you learn it.
_TheBassist01_
Comments