Ac Dc - Damned Chords & Tabs

 

Damned Chords & Tabs

Ac Dc Chords & Tabs

Version: 2 Type: Tab 0 ratings
1 star 2 stars 3 stars 4 stars 5 stars
comments

Damned Tab

Artist: AC DC
Song: Damned
Tabbed by: John Leadman


Intro + verse:

E|--------------------|--------------------|--------------------|--------------------|
B|--------------------|--------------------|--------------------|--------------------|
G|----------------2-2-|--5------2----------|----------------2-2-|--5------2----------|
D|----------------2-2-|--5------2----------|----------------2-2-|--5------2----------|
A|----------------0-0-|--3------0----------|----------------0-0-|--3------0----------|
E|--------------------|--------------------|--------------------|--------------------|


to chorus:                        I'll be damned                            I'll be
|--------------------|-----------------------|-------------------|------------------|
|--------------------|-----------------------|-------------------|------------------|
|----------------2-2-|--5------2----9--8--7--|------7------------|------------------|
|----------------2-2-|--5------2----9--8--7--|------7\-----------|------------------|
|----------------0-0-|--3------0----7--6--5--|------5------------|------------------|
|--------------------|-----------------------|-------------------|------------------|

 Damned     if I...                            Damned     if I...
|---------------------|----------------------|---------------------|--------------------|
|------------------3--|----------------------|------------------3--|----------3---------|
|--5------2--------2--|--------2-------2-0-2-|--5------2--------2--|----------0----2----|
|--5------2--------0--|--------2-------------|--5------2--------0--|----------0----2----|
|--0------0-----------|--------0-------------|--0------0-----------|---------------0----|
|---------------------|----------------------|---------------------|----------3---------|

 Damned     if I...
|---------------------|-------------------|------------------------|----------------------|
|------------------3--|-------------------|------------------------|----------------------|
|--5------2--------2--|--------2----------|--5----5----5--7--8--9--|----9--9--9--9\-------|
|--5------2--------0--|--------2----------|--5----5----5--7--8--9--|----9--9--9--9--------|
|--0------0-----------|--------0----------|--3----3----3--5--6--7--|----7--7--7--7--------|
|---------------------|-------------------|------------------------|----------------------|

2nd verse:
[ Tab from: http://www.guitartabs.cc/tabs/a/ac_dc/damned_tab_ver_2.html ]
|--------------------|--------------------|--------------------|------------------|
|--------------------|--------------------|--------------------|------------------|
|--5------2----------|----------------2-2-|--5------2----------|------------------|
|--5------2----------|----------------2-2-|--5------2----------|------------------|
|--3------0----------|----------------0-0-|--3------0----------|------------------|
|--------------------|--------------------|--------------------|------------------|

during solo after 2nd chorus:

|--------------------|--------------------|--------------------|--3-----------------|
|--------------------|---------3----------|--------------------|--3------3----------|
|--2------2----------|--5------2----------|--2------2----------|--0------2----------|
|--2------2----------|--5------0----------|--2------2----------|--0------0----------|
|--0------0----------|--3-----------------|--0------0----------|--------------------|
|--------------------|--------------------|--------------------|--3------2----------|

|--------------------|--------------------|--------------------|--3-----------------|
|--------------------|---------3----------|--------------------|--3------3----------|
|--2------2----------|--5------2----------|--2------2----------|--0------2----------|
|--2------2----------|--5------0----------|--2------2----------|--0------0----------|
|--0------0----------|--3-----------------|--0------0----------|--------------------|
|--------------------|--------------------|--------------------|--3------2----------|

|--------------------------|--------------------------|-------------------------|
|--------------------------|--------------------------|-------------------------|
|--5--5--5--5--5--5--5--5--|--5--5--5--5--5--7--8--9--|----9--9--9--9--9--9--9--|
|--5--5--5--5--5--5--5--5--|--5--5--5--5--5--7--8--9--|----9--9--9--9--9--9--9--|
|--3--3--3--3--3--3--3--3--|--3--3--3--3--3--5--6--7--|----7--7--7--7--7--7--7--|
|--------------------------|--------------------------|-------------------------|

             	      Chorus:

              I'll be damned     if I ...
|-------------------|---------------------|----------------------|
|-------------------|------------------3--|----------------------|
|--9----------------|--5------2--------2--|--------2-------2-0-2-|
|--9----------------|--5------2--------0--|--------2-------------|
|--7----------------|--0------0-----------|--------0-------------|
|-------------------|---------------------|----------------------|
Comments